  0
SECTION
  2
HEADER
  9
$ACADVER
  1
AC1015
  9
$ACADMAINTVER
 70
     6
  9
$DWGCODEPAGE
  3
ANSI_1252
  9
$INSBASE
 10
0.0
 20
0.0
 30
0.0
  9
$EXTMIN
 10
0.0
 20
0.0
 30
0.0
  9
$EXTMAX
 10
968.310791
 20
184.982498
 30
2.0
  9
$LIMMIN
 10
0.0
 20
0.0
  9
$LIMMAX
 10
420.0
 20
297.0
  9
$ORTHOMODE
 70
     0
  9
$REGENMODE
 70
     1
  9
$FILLMODE
 70
     1
  9
$QTEXTMODE
 70
     0
  9
$MIRRTEXT
 70
     1
  9
$LTSCALE
 40
1.0
  9
$ATTMODE
 70
     1
  9
$TEXTSIZE
 40
2.5
  9
$TRACEWID
 40
1.0
  9
$TEXTSTYLE
  7
Standard
  9
$CLAYER
  8
0
  9
$CELTYPE
  6
ByLayer
  9
$CECOLOR
 62
   256
  9
$CELTSCALE
 40
1.0
  9
$DISPSILH
 70
     0
  9
$DIMSCALE
 40
1.0
  9
$DIMASZ
 40
2.5
  9
$DIMEXO
 40
0.625
  9
$DIMDLI
 40
3.75
  9
$DIMRND
 40
0.0
  9
$DIMDLE
 40
0.0
  9
$DIMEXE
 40
1.25
  9
$DIMTP
 40
0.0
  9
$DIMTM
 40
0.0
  9
$DIMTXT
 40
2.5
  9
$DIMCEN
 40
2.5
  9
$DIMTSZ
 40
0.0
  9
$DIMTOL
 70
     0
  9
$DIMLIM
 70
     0
  9
$DIMTIH
 70
     0
  9
$DIMTOH
 70
     0
  9
$DIMSE1
 70
     0
  9
$DIMSE2
 70
     0
  9
$DIMTAD
 70
     1
  9
$DIMZIN
 70
     8
  9
$DIMBLK
  1

  9
$DIMASO
 70
     1
  9
$DIMSHO
 70
     1
  9
$DIMPOST
  1

  9
$DIMAPOST
  1

  9
$DIMALT
 70
     0
  9
$DIMALTD
 70
     3
  9
$DIMALTF
 40
0.03937
  9
$DIMLFAC
 40
1.0
  9
$DIMTOFL
 70
     1
  9
$DIMTVP
 40
0.0
  9
$DIMTIX
 70
     0
  9
$DIMSOXD
 70
     0
  9
$DIMSAH
 70
     0
  9
$DIMBLK1
  1

  9
$DIMBLK2
  1

  9
$DIMSTYLE
  2

  9
$DIMCLRD
 70
     0
  9
$DIMCLRE
 70
     0
  9
$DIMCLRT
 70
     0
  9
$DIMTFAC
 40
1.0
  9
$DIMGAP
 40
0.625
  9
$DIMJUST
 70
     0
  9
$DIMSD1
 70
     0
  9
$DIMSD2
 70
     0
  9
$DIMTOLJ
 70
     0
  9
$DIMTZIN
 70
     8
  9
$DIMALTZ
 70
     0
  9
$DIMALTTZ
 70
     0
  9
$DIMUPT
 70
     0
  9
$DIMDEC
 70
     2
  9
$DIMTDEC
 70
     2
  9
$DIMALTU
 70
     2
  9
$DIMALTTD
 70
     3
  9
$DIMTXSTY
  7
Standard
  9
$DIMAUNIT
 70
     0
  9
$DIMADEC
 70
     0
  9
$DIMALTRND
 40
0.0
  9
$DIMAZIN
 70
     0
  9
$DIMDSEP
 70
    44
  9
$DIMATFIT
 70
     0
  9
$DIMFRAC
 70
     0
  9
$DIMLDRBLK
  1

  9
$DIMLUNIT
 70
     2
  9
$DIMLWD
 70
    -2
  9
$DIMLWE
 70
    -2
  9
$DIMTMOVE
 70
     0
  9
$LUNITS
 70
     2
  9
$LUPREC
 70
     4
  9
$SKETCHINC
 40
1.0
  9
$FILLETRAD
 40
2.5
  9
$AUNITS
 70
     0
  9
$AUPREC
 70
     0
  9
$MENU
  1
.
  9
$ELEVATION
 40
0.0
  9
$PELEVATION
 40
0.0
  9
$THICKNESS
 40
0.0
  9
$LIMCHECK
 70
     0
  9
$CHAMFERA
 40
2.5
  9
$CHAMFERB
 40
2.5
  9
$CHAMFERC
 40
0.0
  9
$CHAMFERD
 40
0.0
  9
$SKPOLY
 70
     0
  9
$TDCREATE
 40
0.000000000
  9
$TDUCREATE
 40
0.000000000
  9
$TDUPDATE
 40
0.000000000
  9
$TDUUPDATE
 40
0.000000000
  9
$TDINDWG
 40
0.0000000000
  9
$TDUSRTIMER
 40
0.0000000000
  9
$USRTIMER
 70
     1
  9
$ANGBASE
 50
0.0
  9
$ANGDIR
 70
     0
  9
$PDMODE
 70
     0
  9
$PDSIZE
 40
0.0
  9
$PLINEWID
 40
0.0
  9
$SPLFRAME
 70
     0
  9
$SPLINETYPE
 70
     6
  9
$SPLINESEGS
 70
     8
  9
$HANDSEED
  5
1E5
  9
$SURFTAB1
 70
     6
  9
$SURFTAB2
 70
     6
  9
$SURFTYPE
 70
     6
  9
$SURFU
 70
     6
  9
$SURFV
 70
     6
  9
$UCSBASE
  2

  9
$UCSNAME
  2

  9
$UCSORG
 10
0.0
 20
0.0
 30
0.0
  9
$UCSXDIR
 10
1.0
 20
0.0
 30
0.0
  9
$UCSYDIR
 10
0.0
 20
1.0
 30
0.0
  9
$UCSORTHOREF
  2

  9
$UCSORTHOVIEW
 70
     1
  9
$UCSORGTOP
 10
0.0
 20
0.0
 30
0.0
  9
$UCSORGBOTTOM
 10
0.0
 20
0.0
 30
0.0
  9
$UCSORGLEFT
 10
0.0
 20
0.0
 30
0.0
  9
$UCSORGRIGHT
 10
0.0
 20
0.0
 30
0.0
  9
$UCSORGFRONT
 10
0.0
 20
0.0
 30
0.0
  9
$UCSORGBACK
 10
0.0
 20
0.0
 30
0.0
  9
$PUCSBASE
  2

  9
$PUCSNAME
  2

  9
$PUCSORG
 10
0.0
 20
0.0
 30
0.0
  9
$PUCSXDIR
 10
1.0
 20
0.0
 30
0.0
  9
$PUCSYDIR
 10
0.0
 20
1.0
 30
0.0
  9
$PUCSORTHOREF
  2

  9
$PUCSORTHOVIEW
 70
     0
  9
$PUCSORGTOP
 10
0.0
 20
0.0
 30
0.0
  9
$PUCSORGBOTTOM
 10
0.0
 20
0.0
 30
0.0
  9
$PUCSORGLEFT
 10
0.0
 20
0.0
 30
0.0
  9
$PUCSORGRIGHT
 10
0.0
 20
0.0
 30
0.0
  9
$PUCSORGFRONT
 10
0.0
 20
0.0
 30
0.0
  9
$PUCSORGBACK
 10
0.0
 20
0.0
 30
0.0
  9
$USERI1
 70
     0
  9
$USERI2
 70
     0
  9
$USERI3
 70
     0
  9
$USERI4
 70
     0
  9
$USERI5
 70
     0
  9
$USERR1
 40
0.0
  9
$USERR2
 40
0.0
  9
$USERR3
 40
0.0
  9
$USERR4
 40
0.0
  9
$USERR5
 40
0.0
  9
$WORLDVIEW
 70
     1
  9
$SHADEDGE
 70
     3
  9
$SHADEDIF
 70
    70
  9
$TILEMODE
 70
     1
  9
$MAXACTVP
 70
    48
  9
$PINSBASE
 10
0.0
 20
0.0
 30
0.0
  9
$PLIMCHECK
 70
     0
  9
$PEXTMIN
 10
0.0
 20
0.0
 30
0.0
  9
$PEXTMAX
 10
968.310791
 20
184.982498
 30
2.0
  9
$PLIMMIN
 10
0.0
 20
0.0
  9
$PLIMMAX
 10
420.0
 20
297.0
  9
$UNITMODE
 70
     0
  9
$VISRETAIN
 70
     0
  9
$PLINEGEN
 70
     0
  9
$PSLTSCALE
 70
     1
  9
$TREEDEPTH
 70
  3020
  9
$CMLSTYLE
  2
Standard
  9
$CMLJUST
 70
     0
  9
$CMLSCALE
 40
20.0
  9
$PROXYGRAPHICS
 70
     1
  9
$MEASUREMENT
 70
     1
  9
$CELWEIGHT
370
    -1
  9
$ENDCAPS
280
     0
  9
$JOINSTYLE
280
     0
  9
$LWDISPLAY
290
     0
  9
$INSUNITS
 70
     0
  9
$HYPERLINKBASE
  1

  9
$STYLESHEET
  1

  9
$XEDIT
290
     1
  9
$CEPSNTYPE
380
     0
  9
$PSTYLEMODE
290
     0
  9
$FINGERPRINTGUID
  2

  9
$VERSIONGUID
  2

  9
$EXTNAMES
290
     0
  9
$PSVPSCALE
 40
0.0
  0
ENDSEC
  0
SECTION
  2
CLASSES
  0
CLASS
  1
LWPOLYLINE
  2
AcDbPolyline
  3
AutoCAD 2000
 90
        0
280
     0
281
     1
  0
CLASS
  1
IMAGE
  2
AcDbRasterImage
  3
ISM
 90
      127
280
     0
281
     1
  0
CLASS
  1
OLE2FRAME
  2
AcDbOle2Frame
  3
AutoCAD 2000
 90
        0
280
     0
281
     1
  0
CLASS
  1
HATCH
  2
AcDbHatch
  3
AutoCAD 2000
 90
        0
280
     0
281
     1
  0
CLASS
  1
DICTIONARYVAR
  2
AcDbDictionaryVar
  3
AutoCAD 2000
 90
        0
280
     0
281
     0
  0
CLASS
  1
RASTERVARIABLES
  2
AcDbRasterVariables
  3
ISM
 90
        0
280
     0
281
     0
  0
CLASS
  1
IMAGEDEF
  2
AcDbRasterImageDef
  3
ISM
 90
        0
280
     0
281
     0
  0
CLASS
  1
IMAGEDEF_REACTOR
  2
AcDbRasterImageDefReactor
  3
ISM
 90
        1
280
     0
281
     0
  0
CLASS
  1
IDBUFFER
  2
AcDbIdBuffer
  3
AutoCAD 2000
 90
        0
280
     0
281
     0
  0
CLASS
  1
SPATIAL_FILTER
  2
AcDbSpatialFilter
  3
AutoCAD 2000
 90
        0
280
     0
281
     0
  0
CLASS
  1
XRECORD
  2
AcDbXrecord
  3
AutoCAD 2000
 90
        0
280
     0
281
     0
  0
CLASS
  1
SORTENTSTABLE
  2
AcDbSortentsTable
  3
AutoCAD 2000
 90
        0
280
     0
281
     0
  0
CLASS
  1
LAYER_INDEX
  2
AcDbLayerIndex
  3
AutoCAD 2000
 90
        0
280
     0
281
     0
  0
CLASS
  1
SPATIAL_INDEX
  2
AcDbSpatialIndex
  3
AutoCAD 2000
 90
        0
280
     0
281
     0
  0
CLASS
  1
OBJECT_PTR
  2
CAseDLPNTableRecord
  3
"ASE-LPNTableRecord"
 90
        1
280
     0
281
     0
  0
CLASS
  1
LAYOUT
  2
AcDbLayout
  3
AutoCAD 2000
 90
        0
280
     0
281
     0
  0
CLASS
  1
PLOTSETTINGS
  2
AcDbPlotSettings
  3
AutoCAD 2000
 90
        0
280
     0
281
     0
  0
CLASS
  1
ACDBDICTIONARYWDFLT
  2
AcDbDictionaryWithDefault
  3
AutoCAD 2000
 90
        0
280
     0
281
     0
  0
CLASS
  1
ACDBPLACEHOLDER
  2
AcDbPlaceHolder
  3
AutoCAD 2000
 90
        0
280
     0
281
     0
  0
CLASS
  1
VBA_PROJECT
  2
AcDbVbaProject
  3
acadvba
 90
        0
280
     0
281
     0
  0
CLASS
  1
WIPEOUT
  2
AcDbWipeout
  3
WipeOut|AutoCAD Express Tool|expresstools@autodesk.com
 90
      127
280
     0
281
     1
  0
CLASS
  1
WIPEOUTVARIABLES
  2
AcDbWipeoutVariables
  3
WipeOut|AutoCAD Express Tool|expresstools@autodesk.com
 90
        0
280
     0
281
     0
  0
CLASS
  1
RTEXT
  2
RText
  3
RText|AutoCAD Express Tool|expresstools@autodesk.com
 90
        0
280
     0
281
     1
  0
CLASS
  1
ARCALIGNEDTEXT
  2
AcDbArcAlignedText
  3
ATEXT|AutoCAD Express Tool|expresstools@autodesk.com
 90
        0
280
     0
281
     1
  0
ENDSEC
  0
SECTION
  2
TABLES
  0
TABLE
  2
VPORT
  5
7
100
AcDbSymbolTable
 70
     1
  0
VPORT
  5
15
100
AcDbSymbolTableRecord
100
AcDbViewportTableRecord
  2
*ACTIVE
 70
     0
 10
0.0
 20
0.0
 11
1.0
 21
1.0
 12
6.591288
 22
4.579184
 13
0.0
 23
0.0
 14
1.0
 24
1.0
 15
0.0
 25
0.0
 16
0.0
 26
0.0
 36
1.0
 17
0.0
 27
0.0
 37
0.0
 40
9.158369
 41
0.688564
 42
50.0
 43
0.0
 44
0.0
 50
0.0
 51
0.0
 71
     0
 72
   100
 73
     1
 74
     1
 75
     0
 76
     0
 77
     0
 78
     0
281
     0
 65
     0
110
0.0
120
0.0
130
0.0
111
1.0
121
0.0
131
0.0
112
0.0
122
1.0
132
0.0
345
0
346
0
 79
     0
146
0.0
  0
ENDTAB
  0
TABLE
  2
LTYPE
  5
4
100
AcDbSymbolTable
 70
     3
  0
LTYPE
  5
11
100
AcDbSymbolTableRecord
100
AcDbLinetypeTableRecord
  2
ByBlock
 70
    64
  3

 72
    65
 73
     0
 40
0.0
  0
LTYPE
  5
12
100
AcDbSymbolTableRecord
100
AcDbLinetypeTableRecord
  2
ByLayer
 70
    64
  3

 72
    65
 73
     0
 40
0.0
  0
LTYPE
  5
13
100
AcDbSymbolTableRecord
100
AcDbLinetypeTableRecord
  2
Continuous
 70
    64
  3
Solid line
 72
    65
 73
     0
 40
0.0
  0
ENDTAB
  0
TABLE
  2
LAYER
  5
2
100
AcDbSymbolTable
 70
     1
  0
LAYER
  5
14
100
AcDbSymbolTableRecord
100
AcDbLayerTableRecord
  2
0
 70
     0
 62
     7
  6
Continuous
290
     1
370
    -3
390
1D
  0
ENDTAB
  0
TABLE
  2
STYLE
  5
3
100
AcDbSymbolTable
 70
     1
  0
STYLE
  5
17
100
AcDbSymbolTableRecord
100
AcDbTextStyleTableRecord
  2
Standard
 70
     0
 40
0.0
 41
1.0
 50
0.0
 71
     0
 42
0.0
  3
txt
  4

  0
ENDTAB
  0
TABLE
  2
VIEW
  5
5
100
AcDbSymbolTable
 70
     0
  0
ENDTAB
  0
TABLE
  2
UCS
  5
6
100
AcDbSymbolTable
 70
     0
  0
ENDTAB
  0
TABLE
  2
APPID
  5
8
100
AcDbSymbolTable
 70
     1
  0
APPID
  5
16
100
AcDbSymbolTableRecord
100
AcDbRegAppTableRecord
  2
ACAD
 70
     0
  0
ENDTAB
  0
TABLE
  2
DIMSTYLE
  5
9
100
AcDbSymbolTable
 70
     1
100
AcDbDimStyleTable
 71
     0
  0
DIMSTYLE
105
18
100
AcDbSymbolTableRecord
100
AcDbDimStyleTableRecord
  2
Standard
 70
     0
  3

  4

 40
1.0
 41
0.18
 42
0.0625
 43
0.38
 44
0.18
 45
0.0
 46
0.0
 47
0.0
 48
0.0
 71
     0
 72
     0
 73
     1
 74
     1
 75
     0
 76
     0
 77
     0
 78
     0
 79
     0
140
0.18
141
0.09
142
0.0
143
25.4
144
1.0
145
0.0
146
1.0
147
0.09
148
0.0
170
     0
171
     2
172
     0
173
     0
174
     0
175
     0
176
     0
177
     0
178
     0
179
     0
271
     4
272
     4
273
     2
274
     2
275
     0
276
     0
277
     2
278
    46
279
     0
280
     0
281
     0
282
     0
283
     1
284
     0
285
     0
286
     0
288
     0
289
     3
340
17
341
0
342
0
343
0
344
0
371
    -2
372
    -2
  0
ENDTAB
  0
TABLE
  2
BLOCK_RECORD
  5
1
100
AcDbSymbolTable
 70
     0
  0
BLOCK_RECORD
  5
A
100
AcDbSymbolTableRecord
100
AcDbBlockTableRecord
  2
*MODEL_SPACE
340
20
  0
BLOCK_RECORD
  5
B
100
AcDbSymbolTableRecord
100
AcDbBlockTableRecord
  2
*PAPER_SPACE
340
21
  0
ENDTAB
  0
ENDSEC
  0
SECTION
  2
BLOCKS
  0
BLOCK
  5
D
100
AcDbEntity
  8
0
390
0
100
AcDbBlockBegin
  2
*MODEL_SPACE
 70
     0
 10
0.0
 20
0.0
 30
0.0
  3
*MODEL_SPACE
  1

  0
ENDBLK
  5
E
100
AcDbEntity
  8
0
390
0
100
AcDbBlockEnd
  0
BLOCK
  5
F
100
AcDbEntity
 67
     1
  8
0
390
0
100
AcDbBlockBegin
  2
*PAPER_SPACE
 70
     0
 10
0.0
 20
0.0
 30
0.0
  3
*PAPER_SPACE
  1

  0
ENDBLK
  5
10
100
AcDbEntity
 67
     1
  8
0
390
0
100
AcDbBlockEnd
  0
ENDSEC
  0
SECTION
  2
ENTITIES
  0
VIEWPORT
  5
1E4
100
AcDbEntity
 67
     1
  8
0
370
     0
390
0
 62
     0
 48
0.0
100
AcDbViewport
 10
0.0
 20
0.0
 30
0.0
 40
1000.0
 41
1000.0
 68
     1
 69
     1
 12
0.0
 22
0.0
 13
0.0
 23
0.0
 14
1.0
 24
1.0
 15
1.0
 25
1.0
 16
0.0
 26
0.0
 36
1.0
 17
0.0
 27
0.0
 37
0.0
 42
50.0
 43
0.0
 44
0.0
 45
1000.0
 50
0.0
 51
0.0
 72
   100
 90
        0
340
0
  1

281
     0
 71
     0
 74
     1
110
0.0
120
0.0
130
0.0
111
1.0
121
0.0
131
0.0
112
0.0
122
1.0
132
0.0
345
0
346
0
 79
     0
146
0.0
  0
ARC
  5
24
100
AcDbEntity
  8
0
370
    13
390
0
 62
     7
100
AcDbCircle
 10
787.430908
 20
55.56031
 30
0.0
 40
18.5
210
0.0
220
0.0
230
1.0
100
AcDbArc
 50
280.905474
 51
79.094526
  0
LINE
  5
25
100
AcDbEntity
  8
0
370
    13
390
0
 62
     7
100
AcDbLine
 10
790.930908
 20
80.56031
 30
0.0
 11
790.930908
 21
73.726212
 31
0.0
210
0.0
220
0.0
230
1.0
  0
ARC
  5
26
100
AcDbEntity
  8
0
370
    13
390
0
 62
     7
100
AcDbCircle
 10
787.430908
 20
80.56031
 30
0.0
 40
3.5
210
0.0
220
0.0
230
1.0
100
AcDbArc
 50
0.0
 51
180.000005
  0
LINE
  5
27
100
AcDbEntity
  8
0
370
    13
390
0
 62
     7
100
AcDbLine
 10
783.930908
 20
73.726212
 30
0.0
 11
783.930908
 21
80.56031
 31
0.0
210
0.0
220
0.0
230
1.0
  0
ARC
  5
28
100
AcDbEntity
  8
0
370
    13
390
0
 62
     7
100
AcDbCircle
 10
787.430908
 20
55.56031
 30
0.0
 40
18.5
210
0.0
220
0.0
230
1.0
100
AcDbArc
 50
100.905472
 51
259.094528
  0
LINE
  5
29
100
AcDbEntity
  8
0
370
    13
390
0
 62
     7
100
AcDbLine
 10
783.930908
 20
37.394409
 30
0.0
 11
783.930908
 21
30.56031
 31
0.0
210
0.0
220
0.0
230
1.0
  0
ARC
  5
2A
100
AcDbEntity
  8
0
370
    13
390
0
 62
     7
100
AcDbCircle
 10
787.430908
 20
30.56031
 30
0.0
 40
3.5
210
0.0
220
0.0
230
1.0
100
AcDbArc
 50
180.000005
 51
360.0
  0
LINE
  5
2B
100
AcDbEntity
  8
0
370
    13
390
0
 62
     7
100
AcDbLine
 10
790.930908
 20
30.56031
 30
0.0
 11
790.930908
 21
37.394409
 31
0.0
210
0.0
220
0.0
230
1.0
  0
CIRCLE
  5
2C
100
AcDbEntity
  8
0
370
    13
390
0
 62
     7
100
AcDbCircle
 10
787.430908
 20
30.56031
 30
0.0
 40
1.55
210
0.0
220
0.0
230
1.0
  0
CIRCLE
  5
2D
100
AcDbEntity
  8
0
370
    13
390
0
 62
     7
100
AcDbCircle
 10
787.430908
 20
80.56031
 30
0.0
 40
1.55
210
0.0
220
0.0
230
1.0
  0
CIRCLE
  5
2E
100
AcDbEntity
  8
0
370
    13
390
0
 62
     7
100
AcDbCircle
 10
787.430908
 20
61.56031
 30
0.0
 40
1.0
210
0.0
220
0.0
230
1.0
  0
CIRCLE
  5
2F
100
AcDbEntity
  8
0
370
    13
390
0
 62
     7
100
AcDbCircle
 10
787.430908
 20
49.56031
 30
0.0
 40
1.0
210
0.0
220
0.0
230
1.0
  0
LINE
  5
30
100
AcDbEntity
  8
0
370
    13
390
0
 62
     7
100
AcDbLine
 10
493.206116
 20
-114.40258
 30
0.0
 11
478.206116
 21
-114.40258
 31
0.0
210
0.0
220
0.0
230
1.0
  0
LINE
  5
31
100
AcDbEntity
  8
0
370
    13
390
0
 62
     7
100
AcDbLine
 10
493.206116
 20
-114.40258
 30
0.0
 11
493.206116
 21
-117.40258
 31
0.0
210
0.0
220
0.0
230
1.0
  0
LINE
  5
32
100
AcDbEntity
  8
0
370
    13
390
0
 62
     7
100
AcDbLine
 10
493.206116
 20
-117.40258
 30
0.0
 11
513.206116
 21
-117.40258
 31
0.0
210
0.0
220
0.0
230
1.0
  0
LINE
  5
33
100
AcDbEntity
  8
0
370
    13
390
0
 62
     7
100
AcDbLine
 10
513.206116
 20
-117.40258
 30
0.0
 11
513.206116
 21
-114.40258
 31
0.0
210
0.0
220
0.0
230
1.0
  0
LINE
  5
34
100
AcDbEntity
  8
0
370
    13
390
0
 62
     7
100
AcDbLine
 10
513.206116
 20
-94.40258
 30
0.0
 11
513.206116
 21
-114.402336
 31
0.0
210
0.0
220
0.0
230
1.0
  0
LINE
  5
35
100
AcDbEntity
  8
0
370
    13
390
0
 62
     7
100
AcDbLine
 10
513.206116
 20
-94.40258
 30
0.0
 11
516.206116
 21
-94.40258
 31
0.0
210
0.0
220
0.0
230
1.0
  0
LINE
  5
36
100
AcDbEntity
  8
0
370
    13
390
0
 62
     7
100
AcDbLine
 10
516.206116
 20
-114.40258
 30
0.0
 11
516.206116
 21
-94.40258
 31
0.0
210
0.0
220
0.0
230
1.0
  0
LINE
  5
37
100
AcDbEntity
  8
0
370
    13
390
0
 62
     7
100
AcDbLine
 10
516.206116
 20
-114.40258
 30
0.0
 11
528.206116
 21
-114.40258
 31
0.0
210
0.0
220
0.0
230
1.0
  0
LINE
  5
38
100
AcDbEntity
  8
0
370
    13
390
0
 62
     7
100
AcDbLine
 10
528.206116
 20
-114.40258
 30
0.0
 11
510.231445
 21
-12.463066
 31
0.0
210
0.0
220
0.0
230
1.0
  0
ARC
  5
39
100
AcDbEntity
  8
0
370
    13
390
0
 62
     7
100
AcDbCircle
 10
625.171875
 20
7.804039
 30
0.0
 40
116.713575
210
0.0
220
0.0
230
1.0
100
AcDbArc
 50
169.999993
 51
190.000007
  0
ARC
  5
3A
100
AcDbEntity
  8
0
370
    13
390
0
 62
     7
100
AcDbCircle
 10
418.644379
 20
44.220879
 30
0.0
 40
93.0
210
0.0
220
0.0
230
1.0
100
AcDbArc
 50
349.999706
 51
79.999998
  0
LINE
  5
3B
100
AcDbEntity
  8
0
370
    13
390
0
 62
     7
100
AcDbLine
 10
366.304443
 20
147.884491
 30
0.0
 11
434.793671
 21
135.808014
 31
0.0
210
0.0
220
0.0
230
1.0
  0
ARC
  5
3C
100
AcDbEntity
  8
0
370
    13
390
0
 62
     7
100
AcDbCircle
 10
365.436218
 20
142.960449
 30
0.0
 40
5.0
210
0.0
220
0.0
230
1.0
100
AcDbArc
 50
79.999998
 51
169.999993
  0
LINE
  5
3D
100
AcDbEntity
  8
0
370
    13
390
0
 62
     7
100
AcDbLine
 10
359.991211
 20
140.874298
 30
0.0
 11
360.512146
 21
143.828705
 31
0.0
210
0.0
220
0.0
230
1.0
  0
ARC
  5
3E
100
AcDbEntity
  8
0
370
    13
390
0
 62
     7
100
AcDbCircle
 10
364.915253
 20
140.006042
 30
0.0
 40
5.0
210
0.0
220
0.0
230
1.0
100
AcDbArc
 50
169.999993
 51
259.999999
  0
LINE
  5
3F
100
AcDbEntity
  8
0
370
    13
390
0
 62
     7
100
AcDbLine
 10
364.047028
 20
135.082001
 30
0.0
 11
365.473083
 21
134.830566
 31
0.0
210
0.0
220
0.0
230
1.0
  0
LINE
  5
40
100
AcDbEntity
  8
0
370
    13
390
0
 62
     7
100
AcDbLine
 10
365.473083
 20
134.830566
 30
0.0
 11
383.206116
 21
134.830566
 31
0.0
210
0.0
220
0.0
230
1.0
  0
LINE
  5
41
100
AcDbEntity
  8
0
370
    13
390
0
 62
     7
100
AcDbLine
 10
383.206116
 20
134.830566
 30
0.0
 11
383.206116
 21
131.830566
 31
0.0
210
0.0
220
0.0
230
1.0
  0
LINE
  5
42
100
AcDbEntity
  8
0
370
    13
390
0
 62
     7
100
AcDbLine
 10
383.206116
 20
131.830566
 30
0.0
 11
378.206116
 21
131.830566
 31
0.0
210
0.0
220
0.0
230
1.0
  0
LINE
  5
43
100
AcDbEntity
  8
0
370
    13
390
0
 62
     7
100
AcDbLine
 10
378.206116
 20
131.830566
 30
0.0
 11
378.206116
 21
130.830566
 31
0.0
210
0.0
220
0.0
230
1.0
  0
ARC
  5
44
100
AcDbEntity
  8
0
370
    13
390
0
 62
     7
100
AcDbCircle
 10
380.206116
 20
130.830566
 30
0.0
 40
2.0
210
0.0
220
0.0
230
1.0
100
AcDbArc
 50
179.999995
 51
269.999997
  0
LINE
  5
45
100
AcDbEntity
  8
0
370
    13
390
0
 62
     7
100
AcDbLine
 10
380.206116
 20
128.830566
 30
0.0
 11
390.751892
 21
128.830566
 31
0.0
210
0.0
220
0.0
230
1.0
  0
ARC
  5
46
100
AcDbEntity
  8
0
370
    13
390
0
 62
     7
100
AcDbCircle
 10
390.751892
 20
28.830559
 30
0.0
 40
100.0
210
0.0
220
0.0
230
1.0
100
AcDbArc
 50
79.999998
 51
90.000003
  0
LINE
  5
47
100
AcDbEntity
  8
0
370
    13
390
0
 62
     7
100
AcDbLine
 10
408.11673
 20
127.311333
 30
0.0
 11
432.536224
 21
123.005516
 31
0.0
210
0.0
220
0.0
230
1.0
  0
ARC
  5
48
100
AcDbEntity
  8
0
370
    13
390
0
 62
     7
100
AcDbCircle
 10
418.644379
 20
44.220879
 30
0.0
 40
80.0
210
0.0
220
0.0
230
1.0
100
AcDbArc
 50
349.999999
 51
80.000011
  0
ARC
  5
49
100
AcDbEntity
  8
0
370
    13
390
0
 62
     7
100
AcDbCircle
 10
484.804901
 20
32.555
 30
0.0
 40
12.81887
210
0.0
220
0.0
230
1.0
100
AcDbArc
 50
259.999999
 51
349.999999
  0
LINE
  5
4A
100
AcDbEntity
  8
0
370
    13
390
0
 62
     7
100
AcDbLine
 10
475.375488
 20
21.201042
 30
0.0
 11
482.578918
 21
19.930885
 31
0.0
210
0.0
220
0.0
230
1.0
  0
ARC
  5
4B
100
AcDbEntity
  8
0
370
    13
390
0
 62
     7
100
AcDbCircle
 10
476.938324
 20
30.064308
 30
0.0
 40
9.0
210
0.0
220
0.0
230
1.0
100
AcDbArc
 50
181.982471
 51
259.999999
  0
ARC
  5
4C
100
AcDbEntity
  8
0
370
    13
390
0
 62
     7
100
AcDbCircle
 10
433.614288
 20
28.564674
 30
0.0
 40
34.35
210
0.0
220
0.0
230
1.0
100
AcDbArc
 50
1.982473
 51
79.999998
  0
LINE
  5
4D
100
AcDbEntity
  8
0
370
    13
390
0
 62
     7
100
AcDbLine
 10
419.882935
 20
65.865776
 30
0.0
 11
439.579102
 21
62.392815
 31
0.0
210
0.0
220
0.0
230
1.0
  0
LINE
  5
4E
100
AcDbEntity
  8
0
370
    13
390
0
 62
     7
100
AcDbLine
 10
419.014709
 20
60.941734
 30
0.0
 11
419.882935
 21
65.865776
 31
0.0
210
0.0
220
0.0
230
1.0
  0
LINE
  5
4F
100
AcDbEntity
  8
0
370
    13
390
0
 62
     7
100
AcDbLine
 10
419.014709
 20
60.941734
 30
0.0
 11
421.969116
 21
60.420799
 31
0.0
210
0.0
220
0.0
230
1.0
  0
LINE
  5
50
100
AcDbEntity
  8
0
370
    13
390
0
 62
     7
100
AcDbLine
 10
421.969116
 20
60.420799
 30
0.0
 11
421.100891
 21
55.496758
 31
0.0
210
0.0
220
0.0
230
1.0
  0
LINE
  5
51
100
AcDbEntity
  8
0
370
    13
390
0
 62
     7
100
AcDbLine
 10
421.100891
 20
55.496758
 30
0.0
 11
438.710846
 21
57.468773
 31
0.0
210
0.0
220
0.0
230
1.0
  0
ARC
  5
52
100
AcDbEntity
  8
0
370
    13
390
0
 62
     7
100
AcDbCircle
 10
433.614288
 20
28.564674
 30
0.0
 40
29.35
210
0.0
220
0.0
230
1.0
100
AcDbArc
 50
16.248195
 51
79.999998
  0
ARC
  5
53
100
AcDbEntity
  8
0
370
    13
390
0
 62
     7
100
AcDbCircle
 10
453.151489
 20
34.258568
 30
0.0
 40
9.0
210
0.0
220
0.0
230
1.0
100
AcDbArc
 50
259.999999
 51
16.248195
  0
LINE
  5
54
100
AcDbEntity
  8
0
370
    13
390
0
 62
     7
100
AcDbLine
 10
423.273804
 20
30.387978
 30
0.0
 11
451.588654
 21
25.395302
 31
0.0
210
0.0
220
0.0
230
1.0
  0
ARC
  5
55
100
AcDbEntity
  8
0
370
    13
390
0
 62
     7
100
AcDbCircle
 10
422.405548
 20
25.463936
 30
0.0
 40
5.0
210
0.0
220
0.0
230
1.0
100
AcDbArc
 50
79.999998
 51
169.999993
  0
LINE
  5
56
100
AcDbEntity
  8
0
370
    13
390
0
 62
     7
100
AcDbLine
 10
414.52951
 20
9.590446
 30
0.0
 11
417.481506
 21
26.332176
 31
0.0
210
0.0
220
0.0
230
1.0
  0
ARC
  5
57
100
AcDbEntity
  8
0
370
    13
390
0
 62
     7
100
AcDbCircle
 10
419.453552
 20
8.722206
 30
0.0
 40
5.0
210
0.0
220
0.0
230
1.0
100
AcDbArc
 50
169.999993
 51
259.999999
  0
LINE
  5
58
100
AcDbEntity
  8
0
370
    13
390
0
 62
     7
100
AcDbLine
 10
428.43338
 20
2.061684
 30
0.0
 11
418.585297
 21
3.798164
 31
0.0
210
0.0
220
0.0
230
1.0
  0
ARC
  5
59
100
AcDbEntity
  8
0
370
    13
390
0
 62
     7
100
AcDbCircle
 10
424.960419
 20
-17.634468
 30
0.0
 40
20.0
210
0.0
220
0.0
230
1.0
100
AcDbArc
 50
349.999999
 51
79.999998
  0
LINE
  5
5A
100
AcDbEntity
  8
0
370
    13
390
0
 62
     7
100
AcDbLine
 10
444.595795
 20
-21.452118
 30
0.0
 11
444.656555
 21
-21.107437
 31
0.0
210
0.0
220
0.0
230
1.0
  0
ARC
  5
5B
100
AcDbEntity
  8
0
370
    13
390
0
 62
     7
100
AcDbCircle
 10
435.732513
 20
-19.889282
 30
0.0
 40
9.0
210
0.0
220
0.0
230
1.0
100
AcDbArc
 50
259.999999
 51
349.999999
  0
LINE
  5
5C
100
AcDbEntity
  8
0
370
    13
390
0
 62
     7
100
AcDbLine
 10
425.105591
 20
-27.154312
 30
0.0
 11
434.169678
 21
-28.752556
 31
0.0
210
0.0
220
0.0
230
1.0
  0
ARC
  5
5D
100
AcDbEntity
  8
0
370
    13
390
0
 62
     7
100
AcDbCircle
 10
426.668427
 20
-18.291039
 30
0.0
 40
9.0
210
0.0
220
0.0
230
1.0
100
AcDbArc
 50
243.610462
 51
259.999999
  0
LINE
  5
5E
100
AcDbEntity
  8
0
370
    13
390
0
 62
     7
100
AcDbLine
 10
407.955719
 20
-19.053192
 30
0.0
 11
422.668182
 21
-26.35318
 31
0.0
210
0.0
220
0.0
230
1.0
  0
LINE
  5
5F
100
AcDbEntity
  8
0
370
    13
390
0
 62
     7
100
AcDbLine
 10
407.087463
 20
-23.977226
 30
0.0
 11
407.955719
 21
-19.053192
 31
0.0
210
0.0
220
0.0
230
1.0
  0
LINE
  5
60
100
AcDbEntity
  8
0
370
    13
390
0
 62
     7
100
AcDbLine
 10
404.133057
 20
-23.456284
 30
0.0
 11
407.087463
 21
-23.977226
 31
0.0
210
0.0
220
0.0
230
1.0
  0
LINE
  5
61
100
AcDbEntity
  8
0
370
    13
390
0
 62
     7
100
AcDbLine
 10
404.133057
 20
-23.456284
 30
0.0
 11
403.264801
 21
-28.380325
 31
0.0
210
0.0
220
0.0
230
1.0
  0
LINE
  5
62
100
AcDbEntity
  8
0
370
    13
390
0
 62
     7
100
AcDbLine
 10
403.264801
 20
-28.380325
 30
0.0
 11
433.301453
 21
-33.67659
 31
0.0
210
0.0
220
0.0
230
1.0
  0
ARC
  5
63
100
AcDbEntity
  8
0
370
    13
390
0
 62
     7
100
AcDbCircle
 10
431.738617
 20
-42.539864
 30
0.0
 40
9.0
210
0.0
220
0.0
230
1.0
100
AcDbArc
 50
349.999999
 51
79.999998
  0
LINE
  5
64
100
AcDbEntity
  8
0
370
    13
390
0
 62
     7
100
AcDbLine
 10
440.09726
 20
-46.964539
 30
0.0
 11
440.601868
 21
-44.102699
 31
0.0
210
0.0
220
0.0
230
1.0
  0
ARC
  5
65
100
AcDbEntity
  8
0
370
    35
390
0
 62
     7
100
AcDbCircle
 10
321.920349
 20
-26.126755
 30
0.0
 40
120.0
210
0.0
220
0.0
230
1.0
100
AcDbArc
 50
314.994156
 51
349.999999
  0
ARC
  5
66
100
AcDbEntity
  8
0
370
    35
390
0
 62
     7
100
AcDbCircle
 10
408.178558
 20
-112.40258
 30
0.0
 40
2.0
210
0.0
220
0.0
230
1.0
100
AcDbArc
 50
134.994154
 51
269.999997
  0
LINE
  5
67
100
AcDbEntity
  8
0
370
    13
390
0
 62
     7
100
AcDbLine
 10
428.206116
 20
-114.40258
 30
0.0
 11
408.178558
 21
-114.40258
 31
0.0
210
0.0
220
0.0
230
1.0
  0
LINE
  5
68
100
AcDbEntity
  8
0
370
    35
390
0
 62
     7
100
AcDbLine
 10
428.206116
 20
-114.40258
 30
0.0
 11
440.206116
 21
-114.40258
 31
0.0
210
0.0
220
0.0
230
1.0
  0
LINE
  5
69
100
AcDbEntity
  8
0
370
    13
390
0
 62
     7
100
AcDbLine
 10
440.206116
 20
-114.40258
 30
0.0
 11
440.206116
 21
-94.40258
 31
0.0
210
0.0
220
0.0
230
1.0
  0
LINE
  5
6A
100
AcDbEntity
  8
0
370
    13
390
0
 62
     7
100
AcDbLine
 10
443.206116
 20
-94.40258
 30
0.0
 11
440.206116
 21
-94.40258
 31
0.0
210
0.0
220
0.0
230
1.0
  0
LINE
  5
6B
100
AcDbEntity
  8
0
370
    13
390
0
 62
     7
100
AcDbLine
 10
443.206116
 20
-94.40258
 30
0.0
 11
443.206116
 21
-114.402336
 31
0.0
210
0.0
220
0.0
230
1.0
  0
LINE
  5
6C
100
AcDbEntity
  8
0
370
    13
390
0
 62
     7
100
AcDbLine
 10
443.206116
 20
-117.40258
 30
0.0
 11
443.206116
 21
-114.40258
 31
0.0
210
0.0
220
0.0
230
1.0
  0
LINE
  5
6D
100
AcDbEntity
  8
0
370
    13
390
0
 62
     7
100
AcDbLine
 10
463.206116
 20
-117.40258
 30
0.0
 11
443.206116
 21
-117.40258
 31
0.0
210
0.0
220
0.0
230
1.0
  0
LINE
  5
6E
100
AcDbEntity
  8
0
370
    13
390
0
 62
     7
100
AcDbLine
 10
463.206116
 20
-114.40258
 30
0.0
 11
463.206116
 21
-117.40258
 31
0.0
210
0.0
220
0.0
230
1.0
  0
LINE
  5
6F
100
AcDbEntity
  8
0
370
    13
390
0
 62
     7
100
AcDbLine
 10
478.206116
 20
-114.40258
 30
0.0
 11
463.206116
 21
-114.40258
 31
0.0
210
0.0
220
0.0
230
1.0
  0
CIRCLE
  5
70
100
AcDbEntity
  8
0
370
    13
390
0
 62
     7
100
AcDbCircle
 10
436.917206
 20
21.381996
 30
0.0
 40
1.5
210
0.0
220
0.0
230
1.0
  0
CIRCLE
  5
71
100
AcDbEntity
  8
0
370
    13
390
0
 62
     7
100
AcDbCircle
 10
434.486115
 20
7.594696
 30
0.0
 40
1.5
210
0.0
220
0.0
230
1.0
  0
CIRCLE
  5
72
100
AcDbEntity
  8
0
370
    13
390
0
 62
     7
100
AcDbCircle
 10
503.751892
 20
-51.40258
 30
0.0
 40
3.0
210
0.0
220
0.0
230
1.0
  0
CIRCLE
  5
73
100
AcDbEntity
  8
0
370
    13
390
0
 62
     7
100
AcDbCircle
 10
489.501038
 20
93.835243
 30
0.0
 40
1.0
210
0.0
220
0.0
230
1.0
  0
CIRCLE
  5
74
100
AcDbEntity
  8
0
370
    13
390
0
 62
     7
100
AcDbCircle
 10
363.206116
 20
141.830536
 30
0.0
 40
1.0
210
0.0
220
0.0
230
1.0
  0
CIRCLE
  5
75
100
AcDbEntity
  8
0
370
    13
390
0
 62
     7
100
AcDbCircle
 10
495.906464
 20
16.159279
 30
0.0
 40
0.75
210
0.0
220
0.0
230
1.0
  0
CIRCLE
  5
76
100
AcDbEntity
  8
0
370
    35
390
0
 62
     7
100
AcDbCircle
 10
433.664948
 20
129.406769
 30
0.0
 40
1.0
210
0.0
220
0.0
230
1.0
  0
CIRCLE
  5
77
100
AcDbEntity
  8
0
370
    35
390
0
 62
     7
100
AcDbCircle
 10
491.009583
 20
-11.612297
 30
0.0
 40
0.75
210
0.0
220
0.0
230
1.0
  0
LINE
  5
78
100
AcDbEntity
  8
0
370
    13
390
0
 62
     7
100
AcDbLine
 10
491.443695
 20
-9.150284
 30
0.0
 11
485.928772
 21
-8.177849
 31
0.0
210
0.0
220
0.0
230
1.0
  0
ARC
  5
79
100
AcDbEntity
  8
0
370
    35
390
0
 62
     7
100
AcDbCircle
 10
486.015594
 20
-7.685448
 30
0.0
 40
0.5
210
0.0
220
0.0
230
1.0
100
AcDbArc
 50
169.999993
 51
259.999999
  0
LINE
  5
7A
100
AcDbEntity
  8
0
370
    13
390
0
 62
     7
100
AcDbLine
 10
485.523193
 20
-7.598625
 30
0.0
 11
489.378204
 21
14.264107
 31
0.0
210
0.0
220
0.0
230
1.0
  0
ARC
  5
7B
100
AcDbEntity
  8
0
370
    35
390
0
 62
     7
100
AcDbCircle
 10
489.870605
 20
14.177284
 30
0.0
 40
0.5
210
0.0
220
0.0
230
1.0
100
AcDbArc
 50
79.999998
 51
169.999993
  0
LINE
  5
7C
100
AcDbEntity
  8
0
370
    13
390
0
 62
     7
100
AcDbLine
 10
489.957428
 20
14.669685
 30
0.0
 11
495.472351
 21
13.697258
 31
0.0
210
0.0
220
0.0
230
1.0
  0
LINE
  5
7D
100
AcDbEntity
  8
0
370
    13
390
0
 62
     7
100
AcDbLine
 10
500.987274
 20
12.724831
 30
0.0
 11
495.472351
 21
13.697258
 31
0.0
210
0.0
220
0.0
230
1.0
  0
ARC
  5
7E
100
AcDbEntity
  8
0
370
    35
390
0
 62
     7
100
AcDbCircle
 10
500.900452
 20
12.232422
 30
0.0
 40
0.5
210
0.0
220
0.0
230
1.0
100
AcDbArc
 50
349.999999
 51
79.999998
  0
LINE
  5
7F
100
AcDbEntity
  8
0
370
    13
390
0
 62
     7
100
AcDbLine
 10
497.537872
 20
-9.717133
 30
0.0
 11
501.392853
 21
12.145599
 31
0.0
210
0.0
220
0.0
230
1.0
  0
ARC
  5
80
100
AcDbEntity
  8
0
370
    35
390
0
 62
     7
100
AcDbCircle
 10
497.045441
 20
-9.63031
 30
0.0
 40
0.5
210
0.0
220
0.0
230
1.0
100
AcDbArc
 50
259.999999
 51
349.999999
  0
LINE
  5
81
100
AcDbEntity
  8
0
370
    13
390
0
 62
     7
100
AcDbLine
 10
491.443695
 20
-9.150284
 30
0.0
 11
496.958618
 21
-10.122711
 31
0.0
210
0.0
220
0.0
230
1.0
  0
LINE
  5
82
100
AcDbEntity
  8
0
370
    13
390
0
 62
     7
100
AcDbLine
 10
450.706116
 20
-42.40258
 30
0.0
 11
488.706116
 21
-42.40258
 31
0.0
210
0.0
220
0.0
230
1.0
  0
ARC
  5
83
100
AcDbEntity
  8
0
370
    35
390
0
 62
     7
100
AcDbCircle
 10
488.706116
 20
-42.90258
 30
0.0
 40
0.5
210
0.0
220
0.0
230
1.0
100
AcDbArc
 50
0.0
 51
90.000003
  0
ARC
  5
84
100
AcDbEntity
  8
0
370
    35
390
0
 62
     7
100
AcDbCircle
 10
450.706116
 20
-42.90258
 30
0.0
 40
0.5
210
0.0
220
0.0
230
1.0
100
AcDbArc
 50
90.000003
 51
180.000005
  0
LINE
  5
85
100
AcDbEntity
  8
0
370
    13
390
0
 62
     7
100
AcDbLine
 10
489.206116
 20
-42.90258
 30
0.0
 11
489.206116
 21
-44.40258
 31
0.0
210
0.0
220
0.0
230
1.0
  0
ARC
  5
86
100
AcDbEntity
  8
0
370
    35
390
0
 62
     7
100
AcDbCircle
 10
488.706116
 20
-44.40258
 30
0.0
 40
0.5
210
0.0
220
0.0
230
1.0
100
AcDbArc
 50
269.999997
 51
360.0
  0
LINE
  5
87
100
AcDbEntity
  8
0
370
    13
390
0
 62
     7
100
AcDbLine
 10
488.706116
 20
-44.90258
 30
0.0
 11
450.706116
 21
-44.90258
 31
0.0
210
0.0
220
0.0
230
1.0
  0
ARC
  5
88
100
AcDbEntity
  8
0
370
    35
390
0
 62
     7
100
AcDbCircle
 10
450.706116
 20
-44.40258
 30
0.0
 40
0.5
210
0.0
220
0.0
230
1.0
100
AcDbArc
 50
180.000005
 51
269.999997
  0
LINE
  5
89
100
AcDbEntity
  8
0
370
    13
390
0
 62
     7
100
AcDbLine
 10
450.206116
 20
-42.90258
 30
0.0
 11
450.206116
 21
-44.40258
 31
0.0
210
0.0
220
0.0
230
1.0
  0
LINE
  5
8A
100
AcDbEntity
  8
0
370
    13
390
0
 62
     7
100
AcDbLine
 10
468.706116
 20
-80.90258
 30
0.0
 11
487.706116
 21
-80.90258
 31
0.0
210
0.0
220
0.0
230
1.0
  0
ARC
  5
8B
100
AcDbEntity
  8
0
370
    35
390
0
 62
     7
100
AcDbCircle
 10
487.706116
 20
-81.40258
 30
0.0
 40
0.5
210
0.0
220
0.0
230
1.0
100
AcDbArc
 50
0.0
 51
90.000003
  0
ARC
  5
8C
100
AcDbEntity
  8
0
370
    35
390
0
 62
     7
100
AcDbCircle
 10
468.706116
 20
-81.40258
 30
0.0
 40
0.5
210
0.0
220
0.0
230
1.0
100
AcDbArc
 50
90.000003
 51
180.000005
  0
LINE
  5
8D
100
AcDbEntity
  8
0
370
    13
390
0
 62
     7
100
AcDbLine
 10
488.206116
 20
-81.90258
 30
0.0
 11
488.206116
 21
-81.40258
 31
0.0
210
0.0
220
0.0
230
1.0
  0
ARC
  5
8E
100
AcDbEntity
  8
0
370
    35
390
0
 62
     7
100
AcDbCircle
 10
487.706116
 20
-81.90258
 30
0.0
 40
0.5
210
0.0
220
0.0
230
1.0
100
AcDbArc
 50
269.999997
 51
360.0
  0
LINE
  5
8F
100
AcDbEntity
  8
0
370
    13
390
0
 62
     7
100
AcDbLine
 10
487.706116
 20
-82.40258
 30
0.0
 11
468.706116
 21
-82.40258
 31
0.0
210
0.0
220
0.0
230
1.0
  0
ARC
  5
90
100
AcDbEntity
  8
0
370
    35
390
0
 62
     7
100
AcDbCircle
 10
468.706116
 20
-81.90258
 30
0.0
 40
0.5
210
0.0
220
0.0
230
1.0
100
AcDbArc
 50
180.000005
 51
269.999997
  0
LINE
  5
91
100
AcDbEntity
  8
0
370
    13
390
0
 62
     7
100
AcDbLine
 10
468.206116
 20
-81.40258
 30
0.0
 11
468.206116
 21
-81.90258
 31
0.0
210
0.0
220
0.0
230
1.0
  0
LINE
  5
92
100
AcDbEntity
  8
0
370
    13
390
0
 62
     7
100
AcDbLine
 10
450.206116
 20
-59.90258
 30
0.0
 11
450.206116
 21
-58.40258
 31
0.0
210
0.0
220
0.0
230
1.0
  0
ARC
  5
93
100
AcDbEntity
  8
0
370
    35
390
0
 62
     7
100
AcDbCircle
 10
450.706116
 20
-58.40258
 30
0.0
 40
0.5
210
0.0
220
0.0
230
1.0
100
AcDbArc
 50
90.000003
 51
180.000005
  0
ARC
  5
94
100
AcDbEntity
  8
0
370
    35
390
0
 62
     7
100
AcDbCircle
 10
450.706116
 20
-59.90258
 30
0.0
 40
0.5
210
0.0
220
0.0
230
1.0
100
AcDbArc
 50
180.000005
 51
269.999997
  0
LINE
  5
95
100
AcDbEntity
  8
0
370
    13
390
0
 62
     7
100
AcDbLine
 10
488.706116
 20
-57.90258
 30
0.0
 11
450.706116
 21
-57.90258
 31
0.0
210
0.0
220
0.0
230
1.0
  0
ARC
  5
96
100
AcDbEntity
  8
0
370
    35
390
0
 62
     7
100
AcDbCircle
 10
488.706116
 20
-58.40258
 30
0.0
 40
0.5
210
0.0
220
0.0
230
1.0
100
AcDbArc
 50
0.0
 51
90.000003
  0
LINE
  5
97
100
AcDbEntity
  8
0
370
    13
390
0
 62
     7
100
AcDbLine
 10
489.206116
 20
-59.90258
 30
0.0
 11
489.206116
 21
-58.40258
 31
0.0
210
0.0
220
0.0
230
1.0
  0
ARC
  5
98
100
AcDbEntity
  8
0
370
    35
390
0
 62
     7
100
AcDbCircle
 10
488.706116
 20
-59.90258
 30
0.0
 40
0.5
210
0.0
220
0.0
230
1.0
100
AcDbArc
 50
269.999997
 51
360.0
  0
LINE
  5
99
100
AcDbEntity
  8
0
370
    13
390
0
 62
     7
100
AcDbLine
 10
450.706116
 20
-60.40258
 30
0.0
 11
488.706116
 21
-60.40258
 31
0.0
210
0.0
220
0.0
230
1.0
  0
LINE
  5
9A
100
AcDbEntity
  8
0
370
    13
390
0
 62
     7
100
AcDbLine
 10
449.110718
 20
24.30909
 30
0.0
 11
451.080353
 21
23.961784
 31
0.0
210
0.0
220
0.0
230
1.0
  0
ARC
  5
9B
100
AcDbEntity
  8
0
370
    35
390
0
 62
     7
100
AcDbCircle
 10
450.99353
 20
23.469383
 30
0.0
 40
0.5
210
0.0
220
0.0
230
1.0
100
AcDbArc
 50
349.999999
 51
79.999998
  0
ARC
  5
9C
100
AcDbEntity
  8
0
370
    35
390
0
 62
     7
100
AcDbCircle
 10
449.023895
 20
23.816689
 30
0.0
 40
0.5
210
0.0
220
0.0
230
1.0
100
AcDbArc
 50
79.999998
 51
169.999993
  0
LINE
  5
9D
100
AcDbEntity
  8
0
370
    13
390
0
 62
     7
100
AcDbLine
 10
451.485931
 20
23.382561
 30
0.0
 11
449.575806
 21
12.549675
 31
0.0
210
0.0
220
0.0
230
1.0
  0
ARC
  5
9E
100
AcDbEntity
  8
0
370
    35
390
0
 62
     7
100
AcDbCircle
 10
449.083405
 20
12.636497
 30
0.0
 40
0.5
210
0.0
220
0.0
230
1.0
100
AcDbArc
 50
259.999999
 51
349.999999
  0
LINE
  5
9F
100
AcDbEntity
  8
0
370
    13
390
0
 62
     7
100
AcDbLine
 10
448.996582
 20
12.144096
 30
0.0
 11
447.026947
 21
12.491394
 31
0.0
210
0.0
220
0.0
230
1.0
  0
ARC
  5
A0
100
AcDbEntity
  8
0
370
    35
390
0
 62
     7
100
AcDbCircle
 10
447.11377
 20
12.983795
 30
0.0
 40
0.5
210
0.0
220
0.0
230
1.0
100
AcDbArc
 50
169.999993
 51
259.999999
  0
LINE
  5
A1
100
AcDbEntity
  8
0
370
    13
390
0
 62
     7
100
AcDbLine
 10
446.621368
 20
13.070618
 30
0.0
 11
448.531494
 21
23.903511
 31
0.0
210
0.0
220
0.0
230
1.0
  0
LINE
  5
A2
100
AcDbEntity
  8
0
370
    35
390
0
 62
     7
100
AcDbLine
 10
504.706116
 20
-93.40258
 30
0.0
 11
506.706116
 21
-93.40258
 31
0.0
210
0.0
220
0.0
230
1.0
  0
ARC
  5
A3
100
AcDbEntity
  8
0
370
    35
390
0
 62
     7
100
AcDbCircle
 10
506.706116
 20
-93.90258
 30
0.0
 40
0.5
210
0.0
220
0.0
230
1.0
100
AcDbArc
 50
0.0
 51
90.000003
  0
ARC
  5
A4
100
AcDbEntity
  8
0
370
    35
390
0
 62
     7
100
AcDbCircle
 10
504.706116
 20
-93.90258
 30
0.0
 40
0.5
210
0.0
220
0.0
230
1.0
100
AcDbArc
 50
90.000003
 51
180.000005
  0
LINE
  5
A5
100
AcDbEntity
  8
0
370
    35
390
0
 62
     7
100
AcDbLine
 10
507.206116
 20
-102.90258
 30
0.0
 11
507.206116
 21
-93.90258
 31
0.0
210
0.0
220
0.0
230
1.0
  0
ARC
  5
A6
100
AcDbEntity
  8
0
370
    35
390
0
 62
     7
100
AcDbCircle
 10
506.706116
 20
-102.90258
 30
0.0
 40
0.5
210
0.0
220
0.0
230
1.0
100
AcDbArc
 50
269.999997
 51
360.0
  0
LINE
  5
A7
100
AcDbEntity
  8
0
370
    35
390
0
 62
     7
100
AcDbLine
 10
506.706116
 20
-103.40258
 30
0.0
 11
504.706116
 21
-103.40258
 31
0.0
210
0.0
220
0.0
230
1.0
  0
ARC
  5
A8
100
AcDbEntity
  8
0
370
    35
390
0
 62
     7
100
AcDbCircle
 10
504.706116
 20
-102.90258
 30
0.0
 40
0.5
210
0.0
220
0.0
230
1.0
100
AcDbArc
 50
180.000005
 51
269.999997
  0
LINE
  5
A9
100
AcDbEntity
  8
0
370
    35
390
0
 62
     7
100
AcDbLine
 10
504.206116
 20
-93.90258
 30
0.0
 11
504.206116
 21
-102.90258
 31
0.0
210
0.0
220
0.0
230
1.0
  0
LINE
  5
AA
100
AcDbEntity
  8
0
370
    13
390
0
 62
     7
100
AcDbLine
 10
579.273865
 20
110.679733
 30
0.0
 11
573.273865
 21
110.679733
 31
0.0
210
0.0
220
0.0
230
1.0
  0
LINE
  5
AB
100
AcDbEntity
  8
0
370
    13
390
0
 62
     7
100
AcDbLine
 10
579.273865
 20
107.679733
 30
0.0
 11
579.273865
 21
110.679733
 31
0.0
210
0.0
220
0.0
230
1.0
  0
LINE
  5
AC
100
AcDbEntity
  8
0
370
    13
390
0
 62
     7
100
AcDbLine
 10
579.273865
 20
107.679733
 30
0.0
 11
589.273865
 21
107.679733
 31
0.0
210
0.0
220
0.0
230
1.0
  0
LINE
  5
AD
100
AcDbEntity
  8
0
370
    13
390
0
 62
     7
100
AcDbLine
 10
589.273865
 20
107.679733
 30
0.0
 11
589.273865
 21
110.679733
 31
0.0
210
0.0
220
0.0
230
1.0
  0
LINE
  5
AE
100
AcDbEntity
  8
0
370
    13
390
0
 62
     7
100
AcDbLine
 10
589.273865
 20
110.679733
 30
0.0
 11
594.273865
 21
110.679733
 31
0.0
210
0.0
220
0.0
230
1.0
  0
POLYLINE
  5
AF
100
AcDbEntity
  8
0
370
    13
390
0
 62
     7
100
AcDb2dPolyline
 66
     1
 10
0.0
 20
0.0
 30
0.0
 71
    23
  0
VERTEX
  5
B0
100
AcDbEntity
  8
0
370
     0
390
0
100
AcDbVertex
100
AcDb2dVertex
 10
581.025757
 20
178.759491
 30
0.0
  0
VERTEX
  5
B1
100
AcDbEntity
  8
0
370
     0
390
0
100
AcDbVertex
100
AcDb2dVertex
 10
582.437256
 20
174.990128
 30
0.0
  0
VERTEX
  5
B2
100
AcDbEntity
  8
0
370
     0
390
0
100
AcDbVertex
100
AcDb2dVertex
 10
583.113281
 20
173.099655
 30
0.0
  0
VERTEX
  5
B3
100
AcDbEntity
  8
0
370
     0
390
0
100
AcDbVertex
100
AcDb2dVertex
 10
583.76947
 20
171.205322
 30
0.0
  0
VERTEX
  5
B4
100
AcDbEntity
  8
0
370
     0
390
0
100
AcDbVertex
100
AcDb2dVertex
 10
584.405823
 20
169.307129
 30
0.0
  0
VERTEX
  5
B5
100
AcDbEntity
  8
0
370
     0
390
0
100
AcDbVertex
100
AcDb2dVertex
 10
585.022339
 20
167.40509
 30
0.0
  0
VERTEX
  5
B6
100
AcDbEntity
  8
0
370
     0
390
0
100
AcDbVertex
100
AcDb2dVertex
 10
585.619019
 20
165.499191
 30
0.0
  0
VERTEX
  5
B7
100
AcDbEntity
  8
0
370
     0
390
0
100
AcDbVertex
100
AcDb2dVertex
 10
586.195862
 20
163.589432
 30
0.0
  0
VERTEX
  5
B8
100
AcDbEntity
  8
0
370
     0
390
0
100
AcDbVertex
100
AcDb2dVertex
 10
587.11322
 20
160.397934
 30
0.0
  0
VERTEX
  5
B9
100
AcDbEntity
  8
0
370
     0
390
0
100
AcDbVertex
100
AcDb2dVertex
 10
587.975525
 20
157.195724
 30
0.0
  0
VERTEX
  5
BA
100
AcDbEntity
  8
0
370
     0
390
0
100
AcDbVertex
100
AcDb2dVertex
 10
588.782715
 20
153.982788
 30
0.0
  0
VERTEX
  5
BB
100
AcDbEntity
  8
0
370
     0
390
0
100
AcDbVertex
100
AcDb2dVertex
 10
589.534851
 20
150.759155
 30
0.0
  0
VERTEX
  5
BC
100
AcDbEntity
  8
0
370
     0
390
0
100
AcDbVertex
100
AcDb2dVertex
 10
590.231934
 20
147.524811
 30
0.0
  0
VERTEX
  5
BD
100
AcDbEntity
  8
0
370
     0
390
0
100
AcDbVertex
100
AcDb2dVertex
 10
590.87384
 20
144.279724
 30
0.0
  0
VERTEX
  5
BE
100
AcDbEntity
  8
0
370
     0
390
0
100
AcDbVertex
100
AcDb2dVertex
 10
591.532776
 20
140.601089
 30
0.0
  0
VERTEX
  5
BF
100
AcDbEntity
  8
0
370
     0
390
0
100
AcDbVertex
100
AcDb2dVertex
 10
592.12146
 20
136.908768
 30
0.0
  0
VERTEX
  5
C0
100
AcDbEntity
  8
0
370
     0
390
0
100
AcDbVertex
100
AcDb2dVertex
 10
592.639771
 20
133.202774
 30
0.0
  0
VERTEX
  5
C1
100
AcDbEntity
  8
0
370
     0
390
0
100
AcDbVertex
100
AcDb2dVertex
 10
593.087891
 20
129.483124
 30
0.0
  0
VERTEX
  5
C2
100
AcDbEntity
  8
0
370
     0
390
0
100
AcDbVertex
100
AcDb2dVertex
 10
593.465637
 20
125.749786
 30
0.0
  0
VERTEX
  5
C3
100
AcDbEntity
  8
0
370
     0
390
0
100
AcDbVertex
100
AcDb2dVertex
 10
593.773132
 20
122.002777
 30
0.0
  0
VERTEX
  5
C4
100
AcDbEntity
  8
0
370
     0
390
0
100
AcDbVertex
100
AcDb2dVertex
 10
594.010315
 20
118.242104
 30
0.0
  0
VERTEX
  5
C5
100
AcDbEntity
  8
0
370
     0
390
0
100
AcDbVertex
100
AcDb2dVertex
 10
594.177246
 20
114.467751
 30
0.0
  0
VERTEX
  5
C6
100
AcDbEntity
  8
0
370
     0
390
0
100
AcDbVertex
100
AcDb2dVertex
 10
594.273865
 20
110.679733
 30
0.0
  0
SEQEND
  5
C7
100
AcDbEntity
  8
0
370
     0
390
0
  0
ARC
  5
C8
100
AcDbEntity
  8
0
370
    35
390
0
 62
     7
100
AcDbCircle
 10
578.226807
 20
177.679733
 30
0.0
 40
3.0
210
0.0
220
0.0
230
1.0
100
AcDbArc
 50
21.095413
 51
90.000003
  0
LINE
  5
C9
100
AcDbEntity
  8
0
370
    13
390
0
 62
     7
100
AcDbLine
 10
576.273865
 20
180.679733
 30
0.0
 11
578.226807
 21
180.679733
 31
0.0
210
0.0
220
0.0
230
1.0
  0
ARC
  5
CA
100
AcDbEntity
  8
0
370
    35
390
0
 62
     7
100
AcDbCircle
 10
576.273865
 20
177.679733
 30
0.0
 40
3.0
210
0.0
220
0.0
230
1.0
100
AcDbArc
 50
90.000003
 51
180.000005
  0
LINE
  5
CB
100
AcDbEntity
  8
0
370
    13
390
0
 62
     7
100
AcDbLine
 10
573.273865
 20
173.679733
 30
0.0
 11
573.273865
 21
177.679733
 31
0.0
210
0.0
220
0.0
230
1.0
  0
LINE
  5
CC
100
AcDbEntity
  8
0
370
    13
390
0
 62
     7
100
AcDbLine
 10
573.273865
 20
173.679733
 30
0.0
 11
577.773865
 21
173.679733
 31
0.0
210
0.0
220
0.0
230
1.0
  0
LINE
  5
CD
100
AcDbEntity
  8
0
370
    13
390
0
 62
     7
100
AcDbLine
 10
577.773865
 20
173.679733
 30
0.0
 11
577.773865
 21
170.679733
 31
0.0
210
0.0
220
0.0
230
1.0
  0
LINE
  5
CE
100
AcDbEntity
  8
0
370
    13
390
0
 62
     7
100
AcDbLine
 10
577.773865
 20
170.679733
 30
0.0
 11
573.273865
 21
170.679733
 31
0.0
210
0.0
220
0.0
230
1.0
  0
LINE
  5
CF
100
AcDbEntity
  8
0
370
    13
390
0
 62
     7
100
AcDbLine
 10
573.273865
 20
138.679733
 30
0.0
 11
573.273865
 21
170.679733
 31
0.0
210
0.0
220
0.0
230
1.0
  0
LINE
  5
D0
100
AcDbEntity
  8
0
370
    13
390
0
 62
     7
100
AcDbLine
 10
582.773865
 20
138.679733
 30
0.0
 11
573.273865
 21
138.679733
 31
0.0
210
0.0
220
0.0
230
1.0
  0
LINE
  5
D1
100
AcDbEntity
  8
0
370
    13
390
0
 62
     7
100
AcDbLine
 10
582.773865
 20
135.679733
 30
0.0
 11
582.773865
 21
138.679733
 31
0.0
210
0.0
220
0.0
230
1.0
  0
LINE
  5
D2
100
AcDbEntity
  8
0
370
    13
390
0
 62
     7
100
AcDbLine
 10
573.273865
 20
135.679733
 30
0.0
 11
582.773865
 21
135.679733
 31
0.0
210
0.0
220
0.0
230
1.0
  0
LINE
  5
D3
100
AcDbEntity
  8
0
370
    13
390
0
 62
     7
100
AcDbLine
 10
573.273865
 20
110.679733
 30
0.0
 11
573.273865
 21
135.679733
 31
0.0
210
0.0
220
0.0
230
1.0
  0
ARC
  5
D4
100
AcDbEntity
  8
0
370
    13
390
0
 62
     7
100
AcDbCircle
 10
604.350891
 20
-89.220444
 30
0.0
 40
40.0
210
0.0
220
0.0
230
1.0
100
AcDbArc
 50
90.000003
 51
269.999997
  0
LINE
  5
D5
100
AcDbEntity
  8
0
370
    13
390
0
 62
     7
100
AcDbLine
 10
754.351013
 20
-129.220444
 30
0.0
 11
604.350891
 21
-129.220444
 31
0.0
210
0.0
220
0.0
230
1.0
  0
ARC
  5
D6
100
AcDbEntity
  8
0
370
    13
390
0
 62
     7
100
AcDbCircle
 10
754.351013
 20
-89.220444
 30
0.0
 40
40.0
210
0.0
220
0.0
230
1.0
100
AcDbArc
 50
269.999997
 51
90.000003
  0
LINE
  5
D7
100
AcDbEntity
  8
0
370
    13
390
0
 62
     7
100
AcDbLine
 10
604.350891
 20
-49.220444
 30
0.0
 11
754.351013
 21
-49.220444
 31
0.0
210
0.0
220
0.0
230
1.0
  0
LINE
  5
D8
100
AcDbEntity
  8
0
370
    13
390
0
 62
     7
100
AcDbLine
 10
704.350952
 20
-97.720444
 30
0.0
 11
704.350952
 21
-100.720444
 31
0.0
210
0.0
220
0.0
230
1.0
  0
LINE
  5
D9
100
AcDbEntity
  8
0
370
    13
390
0
 62
     7
100
AcDbLine
 10
684.350952
 20
-100.720444
 30
0.0
 11
704.350952
 21
-100.720444
 31
0.0
210
0.0
220
0.0
230
1.0
  0
LINE
  5
DA
100
AcDbEntity
  8
0
370
    13
390
0
 62
     7
100
AcDbLine
 10
684.350952
 20
-100.720444
 30
0.0
 11
684.350952
 21
-97.720444
 31
0.0
210
0.0
220
0.0
230
1.0
  0
LINE
  5
DB
100
AcDbEntity
  8
0
370
    13
390
0
 62
     7
100
AcDbLine
 10
704.350952
 20
-97.720444
 30
0.0
 11
684.350952
 21
-97.720444
 31
0.0
210
0.0
220
0.0
230
1.0
  0
LINE
  5
DC
100
AcDbEntity
  8
0
370
    13
390
0
 62
     7
100
AcDbLine
 10
754.350952
 20
-101.220444
 30
0.0
 11
757.350952
 21
-101.220444
 31
0.0
210
0.0
220
0.0
230
1.0
  0
LINE
  5
DD
100
AcDbEntity
  8
0
370
    13
390
0
 62
     7
100
AcDbLine
 10
757.350952
 20
-116.220444
 30
0.0
 11
757.350952
 21
-101.220444
 31
0.0
210
0.0
220
0.0
230
1.0
  0
LINE
  5
DE
100
AcDbEntity
  8
0
370
    13
390
0
 62
     7
100
AcDbLine
 10
757.350952
 20
-116.220444
 30
0.0
 11
754.350952
 21
-116.220444
 31
0.0
210
0.0
220
0.0
230
1.0
  0
LINE
  5
DF
100
AcDbEntity
  8
0
370
    13
390
0
 62
     7
100
AcDbLine
 10
754.350952
 20
-101.220444
 30
0.0
 11
754.350952
 21
-116.220444
 31
0.0
210
0.0
220
0.0
230
1.0
  0
LINE
  5
E0
100
AcDbEntity
  8
0
370
    13
390
0
 62
     7
100
AcDbLine
 10
684.350952
 20
-101.220444
 30
0.0
 11
684.350952
 21
-116.220444
 31
0.0
210
0.0
220
0.0
230
1.0
  0
LINE
  5
E1
100
AcDbEntity
  8
0
370
    13
390
0
 62
     7
100
AcDbLine
 10
681.350952
 20
-116.220444
 30
0.0
 11
684.350952
 21
-116.220444
 31
0.0
210
0.0
220
0.0
230
1.0
  0
LINE
  5
E2
100
AcDbEntity
  8
0
370
    13
390
0
 62
     7
100
AcDbLine
 10
681.350952
 20
-116.220444
 30
0.0
 11
681.350952
 21
-101.220444
 31
0.0
210
0.0
220
0.0
230
1.0
  0
LINE
  5
E3
100
AcDbEntity
  8
0
370
    13
390
0
 62
     7
100
AcDbLine
 10
684.350952
 20
-101.220444
 30
0.0
 11
681.350952
 21
-101.220444
 31
0.0
210
0.0
220
0.0
230
1.0
  0
LINE
  5
E4
100
AcDbEntity
  8
0
370
    13
390
0
 62
     7
100
AcDbLine
 10
754.350952
 20
-77.220444
 30
0.0
 11
754.350952
 21
-62.220444
 31
0.0
210
0.0
220
0.0
230
1.0
  0
LINE
  5
E5
100
AcDbEntity
  8
0
370
    13
390
0
 62
     7
100
AcDbLine
 10
757.350952
 20
-62.220444
 30
0.0
 11
754.350952
 21
-62.220444
 31
0.0
210
0.0
220
0.0
230
1.0
  0
LINE
  5
E6
100
AcDbEntity
  8
0
370
    13
390
0
 62
     7
100
AcDbLine
 10
757.350952
 20
-62.220444
 30
0.0
 11
757.350952
 21
-77.220444
 31
0.0
210
0.0
220
0.0
230
1.0
  0
LINE
  5
E7
100
AcDbEntity
  8
0
370
    13
390
0
 62
     7
100
AcDbLine
 10
754.350952
 20
-77.220444
 30
0.0
 11
757.350952
 21
-77.220444
 31
0.0
210
0.0
220
0.0
230
1.0
  0
LINE
  5
E8
100
AcDbEntity
  8
0
370
    13
390
0
 62
     7
100
AcDbLine
 10
684.350952
 20
-77.220444
 30
0.0
 11
681.350952
 21
-77.220444
 31
0.0
210
0.0
220
0.0
230
1.0
  0
LINE
  5
E9
100
AcDbEntity
  8
0
370
    13
390
0
 62
     7
100
AcDbLine
 10
681.350952
 20
-62.220444
 30
0.0
 11
681.350952
 21
-77.220444
 31
0.0
210
0.0
220
0.0
230
1.0
  0
LINE
  5
EA
100
AcDbEntity
  8
0
370
    13
390
0
 62
     7
100
AcDbLine
 10
681.350952
 20
-62.220444
 30
0.0
 11
684.350952
 21
-62.220444
 31
0.0
210
0.0
220
0.0
230
1.0
  0
LINE
  5
EB
100
AcDbEntity
  8
0
370
    13
390
0
 62
     7
100
AcDbLine
 10
684.350952
 20
-77.220444
 30
0.0
 11
684.350952
 21
-62.220444
 31
0.0
210
0.0
220
0.0
230
1.0
  0
LINE
  5
EC
100
AcDbEntity
  8
0
370
    13
390
0
 62
     7
100
AcDbLine
 10
734.350952
 20
-97.720444
 30
0.0
 11
754.350952
 21
-97.720444
 31
0.0
210
0.0
220
0.0
230
1.0
  0
LINE
  5
ED
100
AcDbEntity
  8
0
370
    13
390
0
 62
     7
100
AcDbLine
 10
754.350952
 20
-100.720444
 30
0.0
 11
754.350952
 21
-97.720444
 31
0.0
210
0.0
220
0.0
230
1.0
  0
LINE
  5
EE
100
AcDbEntity
  8
0
370
    13
390
0
 62
     7
100
AcDbLine
 10
754.350952
 20
-100.720444
 30
0.0
 11
734.350952
 21
-100.720444
 31
0.0
210
0.0
220
0.0
230
1.0
  0
LINE
  5
EF
100
AcDbEntity
  8
0
370
    13
390
0
 62
     7
100
AcDbLine
 10
734.350952
 20
-97.720444
 30
0.0
 11
734.350952
 21
-100.720444
 31
0.0
210
0.0
220
0.0
230
1.0
  0
LINE
  5
F0
100
AcDbEntity
  8
0
370
    13
390
0
 62
     7
100
AcDbLine
 10
709.350952
 20
-66.220444
 30
0.0
 11
729.350952
 21
-66.220444
 31
0.0
210
0.0
220
0.0
230
1.0
  0
LINE
  5
F1
100
AcDbEntity
  8
0
370
    13
390
0
 62
     7
100
AcDbLine
 10
729.350952
 20
-67.720444
 30
0.0
 11
729.350952
 21
-66.220444
 31
0.0
210
0.0
220
0.0
230
1.0
  0
LINE
  5
F2
100
AcDbEntity
  8
0
370
    13
390
0
 62
     7
100
AcDbLine
 10
729.350952
 20
-67.720444
 30
0.0
 11
709.350952
 21
-67.720444
 31
0.0
210
0.0
220
0.0
230
1.0
  0
LINE
  5
F3
100
AcDbEntity
  8
0
370
    13
390
0
 62
     7
100
AcDbLine
 10
709.350952
 20
-66.220444
 30
0.0
 11
709.350952
 21
-67.720444
 31
0.0
210
0.0
220
0.0
230
1.0
  0
LINE
  5
F4
100
AcDbEntity
  8
0
370
    13
390
0
 62
     7
100
AcDbLine
 10
729.350952
 20
-100.720444
 30
0.0
 11
729.350952
 21
-102.220444
 31
0.0
210
0.0
220
0.0
230
1.0
  0
LINE
  5
F5
100
AcDbEntity
  8
0
370
    13
390
0
 62
     7
100
AcDbLine
 10
729.350952
 20
-102.220444
 30
0.0
 11
709.350952
 21
-102.220444
 31
0.0
210
0.0
220
0.0
230
1.0
  0
LINE
  5
F6
100
AcDbEntity
  8
0
370
    13
390
0
 62
     7
100
AcDbLine
 10
709.350952
 20
-102.220444
 30
0.0
 11
709.350952
 21
-100.720444
 31
0.0
210
0.0
220
0.0
230
1.0
  0
LINE
  5
F7
100
AcDbEntity
  8
0
370
    13
390
0
 62
     7
100
AcDbLine
 10
709.350952
 20
-100.720444
 30
0.0
 11
729.350952
 21
-100.720444
 31
0.0
210
0.0
220
0.0
230
1.0
  0
LINE
  5
F8
100
AcDbEntity
  8
0
370
    35
390
0
 62
     7
100
AcDbLine
 10
569.350952
 20
-90.720444
 30
0.0
 11
579.350952
 21
-90.720444
 31
0.0
210
0.0
220
0.0
230
1.0
  0
LINE
  5
F9
100
AcDbEntity
  8
0
370
    35
390
0
 62
     7
100
AcDbLine
 10
569.350952
 20
-90.720444
 30
0.0
 11
569.350952
 21
-87.720444
 31
0.0
210
0.0
220
0.0
230
1.0
  0
LINE
  5
FA
100
AcDbEntity
  8
0
370
    35
390
0
 62
     7
100
AcDbLine
 10
579.350952
 20
-87.720444
 30
0.0
 11
569.350952
 21
-87.720444
 31
0.0
210
0.0
220
0.0
230
1.0
  0
LINE
  5
FB
100
AcDbEntity
  8
0
370
    35
390
0
 62
     7
100
AcDbLine
 10
579.350952
 20
-87.720444
 30
0.0
 11
579.350952
 21
-90.720444
 31
0.0
210
0.0
220
0.0
230
1.0
  0
LINE
  5
FC
100
AcDbEntity
  8
0
370
    35
390
0
 62
     7
100
AcDbLine
 10
623.149841
 20
-118.781258
 30
0.0
 11
618.149841
 21
-110.121002
 31
0.0
210
0.0
220
0.0
230
1.0
  0
LINE
  5
FD
100
AcDbEntity
  8
0
370
    35
390
0
 62
     7
100
AcDbLine
 10
623.149841
 20
-118.781258
 30
0.0
 11
620.551758
 21
-120.281258
 31
0.0
210
0.0
220
0.0
230
1.0
  0
LINE
  5
FE
100
AcDbEntity
  8
0
370
    35
390
0
 62
     7
100
AcDbLine
 10
615.551758
 20
-111.621002
 30
0.0
 11
620.551758
 21
-120.281258
 31
0.0
210
0.0
220
0.0
230
1.0
  0
LINE
  5
FF
100
AcDbEntity
  8
0
370
    35
390
0
 62
     7
100
AcDbLine
 10
615.551758
 20
-111.621002
 30
0.0
 11
618.149841
 21
-110.121002
 31
0.0
210
0.0
220
0.0
230
1.0
  0
LINE
  5
100
100
AcDbEntity
  8
0
370
    35
390
0
 62
     7
100
AcDbLine
 10
620.551758
 20
-58.15963
 30
0.0
 11
615.551758
 21
-66.819885
 31
0.0
210
0.0
220
0.0
230
1.0
  0
LINE
  5
101
100
AcDbEntity
  8
0
370
    35
390
0
 62
     7
100
AcDbLine
 10
620.551758
 20
-58.15963
 30
0.0
 11
623.149841
 21
-59.65963
 31
0.0
210
0.0
220
0.0
230
1.0
  0
LINE
  5
102
100
AcDbEntity
  8
0
370
    35
390
0
 62
     7
100
AcDbLine
 10
618.149841
 20
-68.319885
 30
0.0
 11
623.149841
 21
-59.65963
 31
0.0
210
0.0
220
0.0
230
1.0
  0
LINE
  5
103
100
AcDbEntity
  8
0
370
    35
390
0
 62
     7
100
AcDbLine
 10
618.149841
 20
-68.319885
 30
0.0
 11
615.551758
 21
-66.819885
 31
0.0
210
0.0
220
0.0
230
1.0
  0
ARC
  5
104
100
AcDbEntity
  8
0
370
    13
390
0
 62
     7
100
AcDbCircle
 10
837.118225
 20
136.536697
 30
0.0
 40
33.0
210
0.0
220
0.0
230
1.0
100
AcDbArc
 50
271.736505
 51
90.000003
  0
LINE
  5
105
100
AcDbEntity
  8
0
370
    13
390
0
 62
     7
100
AcDbLine
 10
837.118225
 20
169.536697
 30
0.0
 11
837.118225
 21
146.536697
 31
0.0
210
0.0
220
0.0
230
1.0
  0
ARC
  5
106
100
AcDbEntity
  8
0
370
    13
390
0
 62
     7
100
AcDbCircle
 10
837.118225
 20
136.536697
 30
0.0
 40
10.0
210
0.0
220
0.0
230
1.0
100
AcDbArc
 50
90.000003
 51
269.999997
  0
LINE
  5
107
100
AcDbEntity
  8
0
370
    13
390
0
 62
     7
100
AcDbLine
 10
837.118225
 20
126.536697
 30
0.0
 11
837.118225
 21
110.536697
 31
0.0
210
0.0
220
0.0
230
1.0
  0
LINE
  5
108
100
AcDbEntity
  8
0
370
    13
390
0
 62
     7
100
AcDbLine
 10
837.118225
 20
110.536697
 30
0.0
 11
844.118225
 21
110.536697
 31
0.0
210
0.0
220
0.0
230
1.0
  0
ARC
  5
109
100
AcDbEntity
  8
0
370
    13
390
0
 62
     7
100
AcDbCircle
 10
844.118225
 20
109.536697
 30
0.0
 40
1.0
210
0.0
220
0.0
230
1.0
100
AcDbArc
 50
280.000002
 51
90.000003
  0
LINE
  5
10A
100
AcDbEntity
  8
0
370
    13
390
0
 62
     7
100
AcDbLine
 10
844.29187
 20
108.551888
 30
0.0
 11
838.118225
 21
107.46331
 31
0.0
210
0.0
220
0.0
230
1.0
  0
LINE
  5
10B
100
AcDbEntity
  8
0
370
    13
390
0
 62
     7
100
AcDbLine
 10
838.118225
 20
107.46331
 30
0.0
 11
838.118225
 21
103.551849
 31
0.0
210
0.0
220
0.0
230
1.0
  0
CIRCLE
  5
10C
100
AcDbEntity
  8
0
370
    13
390
0
 62
     7
100
AcDbCircle
 10
837.118225
 20
136.536697
 30
0.0
 40
2.75
210
0.0
220
0.0
230
1.0
  0
CIRCLE
  5
10D
100
AcDbEntity
  8
0
370
    13
390
0
 62
     7
100
AcDbCircle
 10
849.118225
 20
121.536697
 30
0.0
 40
1.0
210
0.0
220
0.0
230
1.0
  0
CIRCLE
  5
10E
100
AcDbEntity
  8
0
370
    13
390
0
 62
     7
100
AcDbCircle
 10
849.118225
 20
151.536697
 30
0.0
 40
1.0
210
0.0
220
0.0
230
1.0
  0
ARC
  5
10F
100
AcDbEntity
  8
0
370
    13
390
0
 62
     7
100
AcDbCircle
 10
663.065002
 20
138.432602
 30
0.0
 40
35.0
210
0.0
220
0.0
230
1.0
100
AcDbArc
 50
269.999997
 51
90.000003
  0
LINE
  5
110
100
AcDbEntity
  8
0
370
    13
390
0
 62
     7
100
AcDbLine
 10
663.065002
 20
173.432602
 30
0.0
 11
663.065002
 21
148.432602
 31
0.0
210
0.0
220
0.0
230
1.0
  0
ARC
  5
111
100
AcDbEntity
  8
0
370
    13
390
0
 62
     7
100
AcDbCircle
 10
663.065002
 20
138.432602
 30
0.0
 40
10.0
210
0.0
220
0.0
230
1.0
100
AcDbArc
 50
90.000003
 51
269.999997
  0
LINE
  5
112
100
AcDbEntity
  8
0
370
    13
390
0
 62
     7
100
AcDbLine
 10
663.065002
 20
128.432602
 30
0.0
 11
663.065002
 21
103.432602
 31
0.0
210
0.0
220
0.0
230
1.0
  0
CIRCLE
  5
113
100
AcDbEntity
  8
0
370
    13
390
0
 62
     7
100
AcDbCircle
 10
663.065002
 20
138.432602
 30
0.0
 40
2.75
210
0.0
220
0.0
230
1.0
  0
CIRCLE
  5
114
100
AcDbEntity
  8
0
370
    13
390
0
 62
     7
100
AcDbCircle
 10
675.065002
 20
123.432602
 30
0.0
 40
1.0
210
0.0
220
0.0
230
1.0
  0
CIRCLE
  5
115
100
AcDbEntity
  8
0
370
    13
390
0
 62
     7
100
AcDbCircle
 10
675.065002
 20
153.432602
 30
0.0
 40
1.0
210
0.0
220
0.0
230
1.0
  0
CIRCLE
  5
116
100
AcDbEntity
  8
0
370
    13
390
0
 62
     7
100
AcDbCircle
 10
670.065002
 20
111.432602
 30
0.0
 40
1.0
210
0.0
220
0.0
230
1.0
  0
LINE
  5
117
100
AcDbEntity
  8
0
370
    13
390
0
 62
     7
100
AcDbLine
 10
927.450073
 20
131.990295
 30
0.0
 11
939.450073
 21
131.990295
 31
0.0
210
0.0
220
0.0
230
1.0
  0
LINE
  5
118
100
AcDbEntity
  8
0
370
    13
390
0
 62
     7
100
AcDbLine
 10
939.450073
 20
131.990295
 30
0.0
 11
939.450073
 21
128.990295
 31
0.0
210
0.0
220
0.0
230
1.0
  0
LINE
  5
119
100
AcDbEntity
  8
0
370
    13
390
0
 62
     7
100
AcDbLine
 10
939.450073
 20
128.990295
 30
0.0
 11
954.450073
 21
128.990295
 31
0.0
210
0.0
220
0.0
230
1.0
  0
LINE
  5
11A
100
AcDbEntity
  8
0
370
    13
390
0
 62
     7
100
AcDbLine
 10
954.450073
 20
128.990295
 30
0.0
 11
954.450073
 21
131.990295
 31
0.0
210
0.0
220
0.0
230
1.0
  0
LINE
  5
11B
100
AcDbEntity
  8
0
370
    13
390
0
 62
     7
100
AcDbLine
 10
954.450073
 20
131.990295
 30
0.0
 11
967.450073
 21
131.990295
 31
0.0
210
0.0
220
0.0
230
1.0
  0
ARC
  5
11C
100
AcDbEntity
  8
0
370
    13
390
0
 62
     7
100
AcDbCircle
 10
927.450073
 20
131.990295
 30
0.0
 40
40.0
210
0.0
220
0.0
230
1.0
100
AcDbArc
 50
0.0
 51
73.291659
  0
LINE
  5
11D
100
AcDbEntity
  8
0
370
    13
390
0
 62
     7
100
AcDbLine
 10
938.950073
 20
151.990295
 30
0.0
 11
938.950073
 21
170.301514
 31
0.0
210
0.0
220
0.0
230
1.0
  0
LINE
  5
11E
100
AcDbEntity
  8
0
370
    13
390
0
 62
     7
100
AcDbLine
 10
938.950073
 20
151.990295
 30
0.0
 11
935.950073
 21
151.990295
 31
0.0
210
0.0
220
0.0
230
1.0
  0
LINE
  5
11F
100
AcDbEntity
  8
0
370
    13
390
0
 62
     7
100
AcDbLine
 10
935.950073
 20
151.990295
 30
0.0
 11
935.950073
 21
171.076736
 31
0.0
210
0.0
220
0.0
230
1.0
  0
ARC
  5
120
100
AcDbEntity
  8
0
370
    13
390
0
 62
     7
100
AcDbCircle
 10
927.450073
 20
131.990295
 30
0.0
 40
40.0
210
0.0
220
0.0
230
1.0
100
AcDbArc
 50
77.731098
 51
179.999995
  0
LINE
  5
121
100
AcDbEntity
  8
0
370
    13
390
0
 62
     7
100
AcDbLine
 10
900.450073
 20
131.990295
 30
0.0
 11
887.450073
 21
131.990295
 31
0.0
210
0.0
220
0.0
230
1.0
  0
LINE
  5
122
100
AcDbEntity
  8
0
370
    13
390
0
 62
     7
100
AcDbLine
 10
900.450073
 20
128.990295
 30
0.0
 11
900.450073
 21
131.990295
 31
0.0
210
0.0
220
0.0
230
1.0
  0
LINE
  5
123
100
AcDbEntity
  8
0
370
    13
390
0
 62
     7
100
AcDbLine
 10
915.450073
 20
128.990295
 30
0.0
 11
900.450073
 21
128.990295
 31
0.0
210
0.0
220
0.0
230
1.0
  0
LINE
  5
124
100
AcDbEntity
  8
0
370
    13
390
0
 62
     7
100
AcDbLine
 10
915.450073
 20
131.990295
 30
0.0
 11
915.450073
 21
128.990295
 31
0.0
210
0.0
220
0.0
230
1.0
  0
LINE
  5
125
100
AcDbEntity
  8
0
370
    13
390
0
 62
     7
100
AcDbLine
 10
927.450073
 20
131.990295
 30
0.0
 11
915.450073
 21
131.990295
 31
0.0
210
0.0
220
0.0
230
1.0
  0
ARC
  5
126
100
AcDbEntity
  8
0
370
    13
390
0
 62
     7
100
AcDbCircle
 10
735.021912
 20
57.328747
 30
0.0
 40
18.5
210
0.0
220
0.0
230
1.0
100
AcDbArc
 50
280.905474
 51
344.173379
  0
ARC
  5
127
100
AcDbEntity
  8
0
370
    13
390
0
 62
     7
100
AcDbCircle
 10
750.896423
 20
52.828747
 30
0.0
 40
2.0
210
0.0
220
0.0
230
1.0
100
AcDbArc
 50
344.173379
 51
90.000003
  0
LINE
  5
128
100
AcDbEntity
  8
0
370
    13
390
0
 62
     7
100
AcDbLine
 10
735.021912
 20
54.828747
 30
0.0
 11
750.896423
 21
54.828747
 31
0.0
210
0.0
220
0.0
230
1.0
  0
ARC
  5
129
100
AcDbEntity
  8
0
370
    13
390
0
 62
     7
100
AcDbCircle
 10
735.021912
 20
57.328747
 30
0.0
 40
2.5
210
0.0
220
0.0
230
1.0
100
AcDbArc
 50
90.000003
 51
269.999997
  0
LINE
  5
12A
100
AcDbEntity
  8
0
370
    13
390
0
 62
     7
100
AcDbLine
 10
735.021912
 20
59.828747
 30
0.0
 11
750.896423
 21
59.828747
 31
0.0
210
0.0
220
0.0
230
1.0
  0
ARC
  5
12B
100
AcDbEntity
  8
0
370
    13
390
0
 62
     7
100
AcDbCircle
 10
750.896423
 20
61.828747
 30
0.0
 40
2.0
210
0.0
220
0.0
230
1.0
100
AcDbArc
 50
269.999997
 51
15.826621
  0
ARC
  5
12C
100
AcDbEntity
  8
0
370
    13
390
0
 62
     7
100
AcDbCircle
 10
735.021912
 20
57.328747
 30
0.0
 40
18.5
210
0.0
220
0.0
230
1.0
100
AcDbArc
 50
15.826621
 51
79.094526
  0
LINE
  5
12D
100
AcDbEntity
  8
0
370
    13
390
0
 62
     7
100
AcDbLine
 10
738.521912
 20
82.328751
 30
0.0
 11
738.521912
 21
75.494644
 31
0.0
210
0.0
220
0.0
230
1.0
  0
ARC
  5
12E
100
AcDbEntity
  8
0
370
    13
390
0
 62
     7
100
AcDbCircle
 10
735.021912
 20
82.328751
 30
0.0
 40
3.5
210
0.0
220
0.0
230
1.0
100
AcDbArc
 50
0.0
 51
180.000005
  0
LINE
  5
12F
100
AcDbEntity
  8
0
370
    13
390
0
 62
     7
100
AcDbLine
 10
731.521912
 20
75.494644
 30
0.0
 11
731.521912
 21
82.328751
 31
0.0
210
0.0
220
0.0
230
1.0
  0
ARC
  5
130
100
AcDbEntity
  8
0
370
    13
390
0
 62
     7
100
AcDbCircle
 10
735.021912
 20
57.328747
 30
0.0
 40
18.5
210
0.0
220
0.0
230
1.0
100
AcDbArc
 50
100.905472
 51
259.094528
  0
LINE
  5
131
100
AcDbEntity
  8
0
370
    13
390
0
 62
     7
100
AcDbLine
 10
731.521912
 20
39.162846
 30
0.0
 11
731.521912
 21
32.328747
 31
0.0
210
0.0
220
0.0
230
1.0
  0
ARC
  5
132
100
AcDbEntity
  8
0
370
    13
390
0
 62
     7
100
AcDbCircle
 10
735.021912
 20
32.328747
 30
0.0
 40
3.5
210
0.0
220
0.0
230
1.0
100
AcDbArc
 50
180.000005
 51
360.0
  0
LINE
  5
133
100
AcDbEntity
  8
0
370
    13
390
0
 62
     7
100
AcDbLine
 10
738.521912
 20
32.328747
 30
0.0
 11
738.521912
 21
39.162846
 31
0.0
210
0.0
220
0.0
230
1.0
  0
CIRCLE
  5
134
100
AcDbEntity
  8
0
370
    13
390
0
 62
     7
100
AcDbCircle
 10
735.021912
 20
32.328747
 30
0.0
 40
1.55
210
0.0
220
0.0
230
1.0
  0
CIRCLE
  5
135
100
AcDbEntity
  8
0
370
    13
390
0
 62
     7
100
AcDbCircle
 10
735.021912
 20
82.328751
 30
0.0
 40
1.55
210
0.0
220
0.0
230
1.0
  0
CIRCLE
  5
136
100
AcDbEntity
  8
0
370
    35
390
0
 62
     7
100
AcDbCircle
 10
747.283508
 20
-35.782997
 30
0.0
 40
1.0
210
0.0
220
0.0
230
1.0
  0
ARC
  5
137
100
AcDbEntity
  8
0
370
    13
390
0
 62
     7
100
AcDbCircle
 10
747.283508
 20
-10.782995
 30
0.0
 40
28.5
210
0.0
220
0.0
230
1.0
100
AcDbArc
 50
123.016966
 51
236.983034
  0
LINE
  5
138
100
AcDbEntity
  8
0
370
    13
390
0
 62
     7
100
AcDbLine
 10
734.359497
 20
-30.168085
 30
0.0
 11
731.754211
 21
-34.680511
 31
0.0
210
0.0
220
0.0
230
1.0
  0
LINE
  5
139
100
AcDbEntity
  8
0
370
    13
390
0
 62
     7
100
AcDbLine
 10
736.95752
 20
-31.668085
 30
0.0
 11
734.359497
 21
-30.168085
 31
0.0
210
0.0
220
0.0
230
1.0
  0
LINE
  5
13A
100
AcDbEntity
  8
0
370
    13
390
0
 62
     7
100
AcDbLine
 10
736.95752
 20
-31.668085
 30
0.0
 11
734.352295
 21
-36.180511
 31
0.0
210
0.0
220
0.0
230
1.0
  0
ARC
  5
13B
100
AcDbEntity
  8
0
370
    13
390
0
 62
     7
100
AcDbCircle
 10
747.283508
 20
-10.782995
 30
0.0
 40
28.5
210
0.0
220
0.0
230
1.0
100
AcDbArc
 50
243.01696
 51
356.983039
  0
LINE
  5
13C
100
AcDbEntity
  8
0
370
    13
390
0
 62
     7
100
AcDbLine
 10
770.533508
 20
-12.282995
 30
0.0
 11
775.744019
 21
-12.282995
 31
0.0
210
0.0
220
0.0
230
1.0
  0
LINE
  5
13D
100
AcDbEntity
  8
0
370
    13
390
0
 62
     7
100
AcDbLine
 10
770.533508
 20
-9.282995
 30
0.0
 11
770.533508
 21
-12.282995
 31
0.0
210
0.0
220
0.0
230
1.0
  0
LINE
  5
13E
100
AcDbEntity
  8
0
370
    13
390
0
 62
     7
100
AcDbLine
 10
770.533508
 20
-9.282995
 30
0.0
 11
775.744019
 21
-9.282995
 31
0.0
210
0.0
220
0.0
230
1.0
  0
ARC
  5
13F
100
AcDbEntity
  8
0
370
    13
390
0
 62
     7
100
AcDbCircle
 10
747.283508
 20
-10.782995
 30
0.0
 40
28.5
210
0.0
220
0.0
230
1.0
100
AcDbArc
 50
3.016961
 51
116.98304
  0
LINE
  5
140
100
AcDbEntity
  8
0
370
    13
390
0
 62
     7
100
AcDbLine
 10
736.95752
 20
10.102095
 30
0.0
 11
734.352295
 21
14.614519
 31
0.0
210
0.0
220
0.0
230
1.0
  0
LINE
  5
141
100
AcDbEntity
  8
0
370
    13
390
0
 62
     7
100
AcDbLine
 10
734.359497
 20
8.602095
 30
0.0
 11
736.95752
 21
10.102095
 31
0.0
210
0.0
220
0.0
230
1.0
  0
LINE
  5
142
100
AcDbEntity
  8
0
370
    13
390
0
 62
     7
100
AcDbLine
 10
734.359497
 20
8.602095
 30
0.0
 11
731.754211
 21
13.114519
 31
0.0
210
0.0
220
0.0
230
1.0
  0
CIRCLE
  5
143
100
AcDbEntity
  8
0
370
    35
390
0
 62
     7
100
AcDbCircle
 10
747.283508
 20
14.217005
 30
0.0
 40
1.0
210
0.0
220
0.0
230
1.0
  0
CIRCLE
  5
144
100
AcDbEntity
  8
0
370
    13
390
0
 62
     7
100
AcDbCircle
 10
747.283508
 20
-10.782995
 30
0.0
 40
18.75
210
0.0
220
0.0
230
1.0
  0
ARC
  5
145
100
AcDbEntity
  8
0
370
    13
390
0
 62
     7
100
AcDbCircle
 10
846.635681
 20
55.670536
 30
0.0
 40
29.0
210
0.0
220
0.0
230
1.0
100
AcDbArc
 50
162.956156
 51
269.999997
  0
LINE
  5
146
100
AcDbEntity
  8
0
370
    13
390
0
 62
     7
100
AcDbLine
 10
818.909363
 20
64.170532
 30
0.0
 11
826.635681
 21
64.170532
 31
0.0
210
0.0
220
0.0
230
1.0
  0
LINE
  5
147
100
AcDbEntity
  8
0
370
    13
390
0
 62
     7
100
AcDbLine
 10
826.635681
 20
64.170532
 30
0.0
 11
826.635681
 21
67.170532
 31
0.0
210
0.0
220
0.0
230
1.0
  0
LINE
  5
148
100
AcDbEntity
  8
0
370
    13
390
0
 62
     7
100
AcDbLine
 10
826.635681
 20
67.170532
 30
0.0
 11
820.013306
 21
67.170532
 31
0.0
210
0.0
220
0.0
230
1.0
  0
ARC
  5
149
100
AcDbEntity
  8
0
370
    13
390
0
 62
     7
100
AcDbCircle
 10
846.635681
 20
55.670536
 30
0.0
 40
29.0
210
0.0
220
0.0
230
1.0
100
AcDbArc
 50
90.000003
 51
156.63722
  0
ARC
  5
14A
100
AcDbEntity
  8
0
370
    13
390
0
 62
     7
100
AcDbCircle
 10
846.635681
 20
80.670532
 30
0.0
 40
4.0
210
0.0
220
0.0
230
1.0
100
AcDbArc
 50
269.999997
 51
90.000003
  0
ARC
  5
14B
100
AcDbEntity
  8
0
370
    13
390
0
 62
     7
100
AcDbCircle
 10
851.245483
 20
55.670536
 30
0.0
 40
21.5
210
0.0
220
0.0
230
1.0
100
AcDbArc
 50
102.3808
 51
257.6192
  0
ARC
  5
14C
100
AcDbEntity
  8
0
370
    13
390
0
 62
     7
100
AcDbCircle
 10
846.635681
 20
30.670536
 30
0.0
 40
4.0
210
0.0
220
0.0
230
1.0
100
AcDbArc
 50
269.999997
 51
90.000003
  0
CIRCLE
  5
14D
100
AcDbEntity
  8
0
370
    13
390
0
 62
     7
100
AcDbCircle
 10
846.635681
 20
80.670532
 30
0.0
 40
1.0
210
0.0
220
0.0
230
1.0
  0
CIRCLE
  5
14E
100
AcDbEntity
  8
0
370
    13
390
0
 62
     7
100
AcDbCircle
 10
846.635681
 20
30.670536
 30
0.0
 40
1.0
210
0.0
220
0.0
230
1.0
  0
LINE
  5
14F
100
AcDbEntity
  8
0
370
    35
390
0
 62
     7
100
AcDbLine
 10
643.808533
 20
76.119377
 30
0.0
 11
646.808533
 21
76.119377
 31
0.0
210
0.0
220
0.0
230
1.0
  0
LINE
  5
150
100
AcDbEntity
  8
0
370
    35
390
0
 62
     7
100
AcDbLine
 10
643.808533
 20
76.119377
 30
0.0
 11
643.808533
 21
81.119377
 31
0.0
210
0.0
220
0.0
230
1.0
  0
LINE
  5
151
100
AcDbEntity
  8
0
370
    35
390
0
 62
     7
100
AcDbLine
 10
643.808533
 20
81.119377
 30
0.0
 11
626.953491
 21
66.914459
 31
0.0
210
0.0
220
0.0
230
1.0
  0
ARC
  5
152
100
AcDbEntity
  8
0
370
    35
390
0
 62
     7
100
AcDbCircle
 10
655.308533
 20
33.269379
 30
0.0
 40
44.0
210
0.0
220
0.0
230
1.0
100
AcDbArc
 50
130.123177
 51
229.876823
  0
LINE
  5
153
100
AcDbEntity
  8
0
370
    35
390
0
 62
     7
100
AcDbLine
 10
643.808533
 20
-14.58062
 30
0.0
 11
626.953491
 21
-0.375698
 31
0.0
210
0.0
220
0.0
230
1.0
  0
LINE
  5
154
100
AcDbEntity
  8
0
370
    35
390
0
 62
     7
100
AcDbLine
 10
643.808533
 20
-9.58062
 30
0.0
 11
643.808533
 21
-14.58062
 31
0.0
210
0.0
220
0.0
230
1.0
  0
LINE
  5
155
100
AcDbEntity
  8
0
370
    35
390
0
 62
     7
100
AcDbLine
 10
643.808533
 20
-9.58062
 30
0.0
 11
646.808533
 21
-9.58062
 31
0.0
210
0.0
220
0.0
230
1.0
  0
LINE
  5
156
100
AcDbEntity
  8
0
370
    35
390
0
 62
     7
100
AcDbLine
 10
646.808533
 20
-9.58062
 30
0.0
 11
646.808533
 21
-14.58062
 31
0.0
210
0.0
220
0.0
230
1.0
  0
LINE
  5
157
100
AcDbEntity
  8
0
370
    35
390
0
 62
     7
100
AcDbLine
 10
646.808533
 20
-14.58062
 30
0.0
 11
666.736938
 21
-9.220516
 31
0.0
210
0.0
220
0.0
230
1.0
  0
ARC
  5
158
100
AcDbEntity
  8
0
370
    13
390
0
 62
     7
100
AcDbCircle
 10
655.308533
 20
33.269379
 30
0.0
 40
44.0
210
0.0
220
0.0
230
1.0
100
AcDbArc
 50
285.054445
 51
74.945555
  0
LINE
  5
159
100
AcDbEntity
  8
0
370
    13
390
0
 62
     7
100
AcDbLine
 10
646.808533
 20
81.119377
 30
0.0
 11
666.736938
 21
75.759277
 31
0.0
210
0.0
220
0.0
230
1.0
  0
LINE
  5
15A
100
AcDbEntity
  8
0
370
    13
390
0
 62
     7
100
AcDbLine
 10
646.808533
 20
76.119377
 30
0.0
 11
646.808533
 21
81.119377
 31
0.0
210
0.0
220
0.0
230
1.0
  0
CIRCLE
  5
15B
100
AcDbEntity
  8
0
370
    13
390
0
 62
     7
100
AcDbCircle
 10
655.308533
 20
33.269379
 30
0.0
 40
39.0
210
0.0
220
0.0
230
1.0
  0
ARC
  5
15C
100
AcDbEntity
  8
0
370
    13
390
0
 62
     7
100
AcDbCircle
 10
751.526489
 20
136.878647
 30
0.0
 40
35.0
210
0.0
220
0.0
230
1.0
100
AcDbArc
 50
269.999997
 51
90.000003
  0
LINE
  5
15D
100
AcDbEntity
  8
0
370
    13
390
0
 62
     7
100
AcDbLine
 10
751.526489
 20
171.878647
 30
0.0
 11
751.526489
 21
146.878647
 31
0.0
210
0.0
220
0.0
230
1.0
  0
ARC
  5
15E
100
AcDbEntity
  8
0
370
    13
390
0
 62
     7
100
AcDbCircle
 10
751.526489
 20
136.878647
 30
0.0
 40
10.0
210
0.0
220
0.0
230
1.0
100
AcDbArc
 50
269.999997
 51
90.000003
  0
LINE
  5
15F
100
AcDbEntity
  8
0
370
    13
390
0
 62
     7
100
AcDbLine
 10
751.526489
 20
126.878647
 30
0.0
 11
751.526489
 21
101.878647
 31
0.0
210
0.0
220
0.0
230
1.0
  0
CIRCLE
  5
160
100
AcDbEntity
  8
0
370
    13
390
0
 62
     7
100
AcDbCircle
 10
763.526489
 20
121.878647
 30
0.0
 40
1.0
210
0.0
220
0.0
230
1.0
  0
CIRCLE
  5
161
100
AcDbEntity
  8
0
370
    13
390
0
 62
     7
100
AcDbCircle
 10
763.526489
 20
151.878647
 30
0.0
 40
1.0
210
0.0
220
0.0
230
1.0
  0
CIRCLE
  5
162
100
AcDbEntity
  8
0
370
    13
390
0
 62
     7
100
AcDbCircle
 10
578.877319
 20
53.427567
 30
0.0
 40
3.0
210
0.0
220
0.0
230
1.0
  0
CIRCLE
  5
163
100
AcDbEntity
  8
0
370
    13
390
0
 62
     7
100
AcDbCircle
 10
578.877319
 20
53.427567
 30
0.0
 40
1.0
210
0.0
220
0.0
230
1.0
  0
CIRCLE
  5
164
100
AcDbEntity
  8
0
370
    35
390
0
 62
     7
100
AcDbCircle
 10
827.988647
 20
-46.092949
 30
0.0
 40
1.0
210
0.0
220
0.0
230
1.0
  0
ARC
  5
165
100
AcDbEntity
  8
0
370
    13
390
0
 62
     7
100
AcDbCircle
 10
827.988647
 20
-21.092947
 30
0.0
 40
37.5
210
0.0
220
0.0
230
1.0
100
AcDbArc
 50
122.292447
 51
237.707553
  0
LINE
  5
166
100
AcDbEntity
  8
0
370
    13
390
0
 62
     7
100
AcDbLine
 10
812.439636
 20
-45.024673
 30
0.0
 11
807.95459
 21
-52.792908
 31
0.0
210
0.0
220
0.0
230
1.0
  0
LINE
  5
167
100
AcDbEntity
  8
0
370
    13
390
0
 62
     7
100
AcDbLine
 10
815.037659
 20
-46.524673
 30
0.0
 11
812.439636
 21
-45.024673
 31
0.0
210
0.0
220
0.0
230
1.0
  0
LINE
  5
168
100
AcDbEntity
  8
0
370
    13
390
0
 62
     7
100
AcDbLine
 10
815.037659
 20
-46.524673
 30
0.0
 11
810.552673
 21
-54.292908
 31
0.0
210
0.0
220
0.0
230
1.0
  0
ARC
  5
169
100
AcDbEntity
  8
0
370
    13
390
0
 62
     7
100
AcDbCircle
 10
827.988647
 20
-21.092947
 30
0.0
 40
37.5
210
0.0
220
0.0
230
1.0
100
AcDbArc
 50
242.29244
 51
357.707557
  0
LINE
  5
16A
100
AcDbEntity
  8
0
370
    13
390
0
 62
     7
100
AcDbLine
 10
856.488647
 20
-22.592947
 30
0.0
 11
865.458618
 21
-22.592947
 31
0.0
210
0.0
220
0.0
230
1.0
  0
LINE
  5
16B
100
AcDbEntity
  8
0
370
    13
390
0
 62
     7
100
AcDbLine
 10
856.488647
 20
-19.592947
 30
0.0
 11
856.488647
 21
-22.592947
 31
0.0
210
0.0
220
0.0
230
1.0
  0
LINE
  5
16C
100
AcDbEntity
  8
0
370
    13
390
0
 62
     7
100
AcDbLine
 10
856.488647
 20
-19.592947
 30
0.0
 11
865.458618
 21
-19.592947
 31
0.0
210
0.0
220
0.0
230
1.0
  0
ARC
  5
16D
100
AcDbEntity
  8
0
370
    13
390
0
 62
     7
100
AcDbCircle
 10
827.988647
 20
-21.092947
 30
0.0
 40
37.5
210
0.0
220
0.0
230
1.0
100
AcDbArc
 50
2.292443
 51
117.70756
  0
LINE
  5
16E
100
AcDbEntity
  8
0
370
    13
390
0
 62
     7
100
AcDbLine
 10
815.037659
 20
4.338778
 30
0.0
 11
810.552673
 21
12.107016
 31
0.0
210
0.0
220
0.0
230
1.0
  0
LINE
  5
16F
100
AcDbEntity
  8
0
370
    13
390
0
 62
     7
100
AcDbLine
 10
812.439636
 20
2.838778
 30
0.0
 11
815.037659
 21
4.338778
 31
0.0
210
0.0
220
0.0
230
1.0
  0
LINE
  5
170
100
AcDbEntity
  8
0
370
    13
390
0
 62
     7
100
AcDbLine
 10
812.439636
 20
2.838778
 30
0.0
 11
807.95459
 21
10.607014
 31
0.0
210
0.0
220
0.0
230
1.0
  0
CIRCLE
  5
171
100
AcDbEntity
  8
0
370
    35
390
0
 62
     7
100
AcDbCircle
 10
827.988647
 20
3.907053
 30
0.0
 40
1.0
210
0.0
220
0.0
230
1.0
  0
CIRCLE
  5
172
100
AcDbEntity
  8
0
370
    13
390
0
 62
     7
100
AcDbCircle
 10
827.988647
 20
-21.092947
 30
0.0
 40
18.75
210
0.0
220
0.0
230
1.0
  0
LINE
  5
173
100
AcDbEntity
  8
0
370
    13
390
0
 62
     7
100
AcDbLine
 10
597.223267
 20
73.073677
 30
0.0
 11
587.223267
 21
73.073677
 31
0.0
210
0.0
220
0.0
230
1.0
  0
LINE
  5
174
100
AcDbEntity
  8
0
370
    13
390
0
 62
     7
100
AcDbLine
 10
587.223267
 20
83.073677
 30
0.0
 11
597.223267
 21
73.073677
 31
0.0
210
0.0
220
0.0
230
1.0
  0
LINE
  5
175
100
AcDbEntity
  8
0
370
    13
390
0
 62
     7
100
AcDbLine
 10
587.223267
 20
73.073677
 30
0.0
 11
587.223267
 21
83.073677
 31
0.0
210
0.0
220
0.0
230
1.0
  0
ARC
  5
176
100
AcDbEntity
  8
0
370
    13
390
0
 62
     7
100
AcDbCircle
 10
555.785889
 20
21.658634
 30
0.0
 40
4.0
210
0.0
220
0.0
230
1.0
100
AcDbArc
 50
141.304511
 51
55.606868
  0
LINE
  5
177
100
AcDbEntity
  8
0
370
    13
390
0
 62
     7
100
AcDbLine
 10
556.045349
 20
24.959358
 30
0.0
 11
558.045349
 21
24.959358
 31
0.0
210
0.0
220
0.0
230
1.0
  0
LINE
  5
178
100
AcDbEntity
  8
0
370
    13
390
0
 62
     7
100
AcDbLine
 10
554.863953
 20
31.659359
 30
0.0
 11
556.045349
 21
24.959358
 31
0.0
210
0.0
220
0.0
230
1.0
  0
LINE
  5
179
100
AcDbEntity
  8
0
370
    13
390
0
 62
     7
100
AcDbLine
 10
552.66394
 20
31.659359
 30
0.0
 11
554.863953
 21
31.659359
 31
0.0
210
0.0
220
0.0
230
1.0
  0
LINE
  5
17A
100
AcDbEntity
  8
0
370
    13
390
0
 62
     7
100
AcDbLine
 10
552.66394
 20
24.159359
 30
0.0
 11
552.66394
 21
31.659359
 31
0.0
210
0.0
220
0.0
230
1.0
  0
CIRCLE
  5
17B
100
AcDbEntity
  8
0
370
    13
390
0
 62
     7
100
AcDbCircle
 10
555.785889
 20
21.658634
 30
0.0
 40
2.0
210
0.0
220
0.0
230
1.0
  0
LINE
  5
17C
100
AcDbEntity
  8
0
370
    13
390
0
 62
     7
100
AcDbLine
 10
928.310791
 20
64.00663
 30
0.0
 11
940.310791
 21
64.00663
 31
0.0
210
0.0
220
0.0
230
1.0
  0
LINE
  5
17D
100
AcDbEntity
  8
0
370
    13
390
0
 62
     7
100
AcDbLine
 10
940.310791
 20
64.00663
 30
0.0
 11
940.310791
 21
61.00663
 31
0.0
210
0.0
220
0.0
230
1.0
  0
LINE
  5
17E
100
AcDbEntity
  8
0
370
    13
390
0
 62
     7
100
AcDbLine
 10
940.310791
 20
61.00663
 30
0.0
 11
955.310791
 21
61.00663
 31
0.0
210
0.0
220
0.0
230
1.0
  0
LINE
  5
17F
100
AcDbEntity
  8
0
370
    13
390
0
 62
     7
100
AcDbLine
 10
955.310791
 20
61.00663
 30
0.0
 11
955.310791
 21
64.00663
 31
0.0
210
0.0
220
0.0
230
1.0
  0
LINE
  5
180
100
AcDbEntity
  8
0
370
    13
390
0
 62
     7
100
AcDbLine
 10
955.310791
 20
64.00663
 30
0.0
 11
968.310791
 21
64.00663
 31
0.0
210
0.0
220
0.0
230
1.0
  0
ARC
  5
181
100
AcDbEntity
  8
0
370
    13
390
0
 62
     7
100
AcDbCircle
 10
928.310791
 20
64.00663
 30
0.0
 40
40.0
210
0.0
220
0.0
230
1.0
100
AcDbArc
 50
0.0
 51
73.291659
  0
LINE
  5
182
100
AcDbEntity
  8
0
370
    13
390
0
 62
     7
100
AcDbLine
 10
939.810791
 20
84.00663
 30
0.0
 11
939.810791
 21
102.317856
 31
0.0
210
0.0
220
0.0
230
1.0
  0
LINE
  5
183
100
AcDbEntity
  8
0
370
    13
390
0
 62
     7
100
AcDbLine
 10
939.810791
 20
84.00663
 30
0.0
 11
936.810791
 21
84.00663
 31
0.0
210
0.0
220
0.0
230
1.0
  0
LINE
  5
184
100
AcDbEntity
  8
0
370
    13
390
0
 62
     7
100
AcDbLine
 10
936.810791
 20
84.00663
 30
0.0
 11
936.810791
 21
103.093071
 31
0.0
210
0.0
220
0.0
230
1.0
  0
ARC
  5
185
100
AcDbEntity
  8
0
370
    13
390
0
 62
     7
100
AcDbCircle
 10
928.310791
 20
64.00663
 30
0.0
 40
40.0
210
0.0
220
0.0
230
1.0
100
AcDbArc
 50
77.731098
 51
179.999995
  0
LINE
  5
186
100
AcDbEntity
  8
0
370
    13
390
0
 62
     7
100
AcDbLine
 10
901.310791
 20
64.00663
 30
0.0
 11
888.310791
 21
64.00663
 31
0.0
210
0.0
220
0.0
230
1.0
  0
LINE
  5
187
100
AcDbEntity
  8
0
370
    13
390
0
 62
     7
100
AcDbLine
 10
901.310791
 20
61.00663
 30
0.0
 11
901.310791
 21
64.00663
 31
0.0
210
0.0
220
0.0
230
1.0
  0
LINE
  5
188
100
AcDbEntity
  8
0
370
    13
390
0
 62
     7
100
AcDbLine
 10
916.310791
 20
61.00663
 30
0.0
 11
901.310791
 21
61.00663
 31
0.0
210
0.0
220
0.0
230
1.0
  0
LINE
  5
189
100
AcDbEntity
  8
0
370
    13
390
0
 62
     7
100
AcDbLine
 10
916.310791
 20
64.00663
 30
0.0
 11
916.310791
 21
61.00663
 31
0.0
210
0.0
220
0.0
230
1.0
  0
LINE
  5
18A
100
AcDbEntity
  8
0
370
    13
390
0
 62
     7
100
AcDbLine
 10
928.310791
 20
64.00663
 30
0.0
 11
916.310791
 21
64.00663
 31
0.0
210
0.0
220
0.0
230
1.0
  0
LINE
  5
18B
100
AcDbEntity
  8
0
370
    13
390
0
 62
     7
100
AcDbLine
 10
616.277649
 20
114.982498
 30
0.0
 11
610.277649
 21
114.982498
 31
0.0
210
0.0
220
0.0
230
1.0
  0
LINE
  5
18C
100
AcDbEntity
  8
0
370
    13
390
0
 62
     7
100
AcDbLine
 10
616.277649
 20
111.982498
 30
0.0
 11
616.277649
 21
114.982498
 31
0.0
210
0.0
220
0.0
230
1.0
  0
LINE
  5
18D
100
AcDbEntity
  8
0
370
    13
390
0
 62
     7
100
AcDbLine
 10
616.277649
 20
111.982498
 30
0.0
 11
626.277649
 21
111.982498
 31
0.0
210
0.0
220
0.0
230
1.0
  0
LINE
  5
18E
100
AcDbEntity
  8
0
370
    13
390
0
 62
     7
100
AcDbLine
 10
626.277649
 20
111.982498
 30
0.0
 11
626.277649
 21
114.982498
 31
0.0
210
0.0
220
0.0
230
1.0
  0
LINE
  5
18F
100
AcDbEntity
  8
0
370
    13
390
0
 62
     7
100
AcDbLine
 10
626.277649
 20
114.982498
 30
0.0
 11
631.277649
 21
114.982498
 31
0.0
210
0.0
220
0.0
230
1.0
  0
POLYLINE
  5
190
100
AcDbEntity
  8
0
370
    13
390
0
 62
     7
100
AcDb2dPolyline
 66
     1
 10
0.0
 20
0.0
 30
0.0
 71
    23
  0
VERTEX
  5
191
100
AcDbEntity
  8
0
370
     0
390
0
100
AcDbVertex
100
AcDb2dVertex
 10
618.029541
 20
183.062256
 30
0.0
  0
VERTEX
  5
192
100
AcDbEntity
  8
0
370
     0
390
0
100
AcDbVertex
100
AcDb2dVertex
 10
619.44104
 20
179.292892
 30
0.0
  0
VERTEX
  5
193
100
AcDbEntity
  8
0
370
     0
390
0
100
AcDbVertex
100
AcDb2dVertex
 10
620.117065
 20
177.40242
 30
0.0
  0
VERTEX
  5
194
100
AcDbEntity
  8
0
370
     0
390
0
100
AcDbVertex
100
AcDb2dVertex
 10
620.773254
 20
175.508087
 30
0.0
  0
VERTEX
  5
195
100
AcDbEntity
  8
0
370
     0
390
0
100
AcDbVertex
100
AcDb2dVertex
 10
621.409607
 20
173.609894
 30
0.0
  0
VERTEX
  5
196
100
AcDbEntity
  8
0
370
     0
390
0
100
AcDbVertex
100
AcDb2dVertex
 10
622.026123
 20
171.707855
 30
0.0
  0
VERTEX
  5
197
100
AcDbEntity
  8
0
370
     0
390
0
100
AcDbVertex
100
AcDb2dVertex
 10
622.622803
 20
169.801956
 30
0.0
  0
VERTEX
  5
198
100
AcDbEntity
  8
0
370
     0
390
0
100
AcDbVertex
100
AcDb2dVertex
 10
623.199646
 20
167.892197
 30
0.0
  0
VERTEX
  5
199
100
AcDbEntity
  8
0
370
     0
390
0
100
AcDbVertex
100
AcDb2dVertex
 10
624.117004
 20
164.700699
 30
0.0
  0
VERTEX
  5
19A
100
AcDbEntity
  8
0
370
     0
390
0
100
AcDbVertex
100
AcDb2dVertex
 10
624.979309
 20
161.498489
 30
0.0
  0
VERTEX
  5
19B
100
AcDbEntity
  8
0
370
     0
390
0
100
AcDbVertex
100
AcDb2dVertex
 10
625.786499
 20
158.285553
 30
0.0
  0
VERTEX
  5
19C
100
AcDbEntity
  8
0
370
     0
390
0
100
AcDbVertex
100
AcDb2dVertex
 10
626.538635
 20
155.06192
 30
0.0
  0
VERTEX
  5
19D
100
AcDbEntity
  8
0
370
     0
390
0
100
AcDbVertex
100
AcDb2dVertex
 10
627.235718
 20
151.827576
 30
0.0
  0
VERTEX
  5
19E
100
AcDbEntity
  8
0
370
     0
390
0
100
AcDbVertex
100
AcDb2dVertex
 10
627.877625
 20
148.582489
 30
0.0
  0
VERTEX
  5
19F
100
AcDbEntity
  8
0
370
     0
390
0
100
AcDbVertex
100
AcDb2dVertex
 10
628.53656
 20
144.903854
 30
0.0
  0
VERTEX
  5
1A0
100
AcDbEntity
  8
0
370
     0
390
0
100
AcDbVertex
100
AcDb2dVertex
 10
629.125244
 20
141.211533
 30
0.0
  0
VERTEX
  5
1A1
100
AcDbEntity
  8
0
370
     0
390
0
100
AcDbVertex
100
AcDb2dVertex
 10
629.643555
 20
137.505539
 30
0.0
  0
VERTEX
  5
1A2
100
AcDbEntity
  8
0
370
     0
390
0
100
AcDbVertex
100
AcDb2dVertex
 10
630.091675
 20
133.785889
 30
0.0
  0
VERTEX
  5
1A3
100
AcDbEntity
  8
0
370
     0
390
0
100
AcDbVertex
100
AcDb2dVertex
 10
630.469421
 20
130.052551
 30
0.0
  0
VERTEX
  5
1A4
100
AcDbEntity
  8
0
370
     0
390
0
100
AcDbVertex
100
AcDb2dVertex
 10
630.776917
 20
126.305542
 30
0.0
  0
VERTEX
  5
1A5
100
AcDbEntity
  8
0
370
     0
390
0
100
AcDbVertex
100
AcDb2dVertex
 10
631.014099
 20
122.544868
 30
0.0
  0
VERTEX
  5
1A6
100
AcDbEntity
  8
0
370
     0
390
0
100
AcDbVertex
100
AcDb2dVertex
 10
631.18103
 20
118.770515
 30
0.0
  0
VERTEX
  5
1A7
100
AcDbEntity
  8
0
370
     0
390
0
100
AcDbVertex
100
AcDb2dVertex
 10
631.277649
 20
114.982498
 30
0.0
  0
SEQEND
  5
1A8
100
AcDbEntity
  8
0
370
     0
390
0
  0
ARC
  5
1A9
100
AcDbEntity
  8
0
370
    35
390
0
 62
     7
100
AcDbCircle
 10
615.230591
 20
181.982498
 30
0.0
 40
3.0
210
0.0
220
0.0
230
1.0
100
AcDbArc
 50
21.095413
 51
90.000003
  0
LINE
  5
1AA
100
AcDbEntity
  8
0
370
    13
390
0
 62
     7
100
AcDbLine
 10
613.277649
 20
184.982498
 30
0.0
 11
615.230591
 21
184.982498
 31
0.0
210
0.0
220
0.0
230
1.0
  0
ARC
  5
1AB
100
AcDbEntity
  8
0
370
    35
390
0
 62
     7
100
AcDbCircle
 10
613.277649
 20
181.982498
 30
0.0
 40
3.0
210
0.0
220
0.0
230
1.0
100
AcDbArc
 50
90.000003
 51
180.000005
  0
LINE
  5
1AC
100
AcDbEntity
  8
0
370
    13
390
0
 62
     7
100
AcDbLine
 10
610.277649
 20
177.982498
 30
0.0
 11
610.277649
 21
181.982498
 31
0.0
210
0.0
220
0.0
230
1.0
  0
LINE
  5
1AD
100
AcDbEntity
  8
0
370
    13
390
0
 62
     7
100
AcDbLine
 10
610.277649
 20
177.982498
 30
0.0
 11
614.777649
 21
177.982498
 31
0.0
210
0.0
220
0.0
230
1.0
  0
LINE
  5
1AE
100
AcDbEntity
  8
0
370
    13
390
0
 62
     7
100
AcDbLine
 10
614.777649
 20
177.982498
 30
0.0
 11
614.777649
 21
174.982498
 31
0.0
210
0.0
220
0.0
230
1.0
  0
LINE
  5
1AF
100
AcDbEntity
  8
0
370
    13
390
0
 62
     7
100
AcDbLine
 10
614.777649
 20
174.982498
 30
0.0
 11
610.277649
 21
174.982498
 31
0.0
210
0.0
220
0.0
230
1.0
  0
LINE
  5
1B0
100
AcDbEntity
  8
0
370
    13
390
0
 62
     7
100
AcDbLine
 10
610.277649
 20
142.982498
 30
0.0
 11
610.277649
 21
174.982498
 31
0.0
210
0.0
220
0.0
230
1.0
  0
LINE
  5
1B1
100
AcDbEntity
  8
0
370
    13
390
0
 62
     7
100
AcDbLine
 10
619.777649
 20
142.982498
 30
0.0
 11
610.277649
 21
142.982498
 31
0.0
210
0.0
220
0.0
230
1.0
  0
LINE
  5
1B2
100
AcDbEntity
  8
0
370
    13
390
0
 62
     7
100
AcDbLine
 10
619.777649
 20
139.982498
 30
0.0
 11
619.777649
 21
142.982498
 31
0.0
210
0.0
220
0.0
230
1.0
  0
LINE
  5
1B3
100
AcDbEntity
  8
0
370
    13
390
0
 62
     7
100
AcDbLine
 10
610.277649
 20
139.982498
 30
0.0
 11
619.777649
 21
139.982498
 31
0.0
210
0.0
220
0.0
230
1.0
  0
LINE
  5
1B4
100
AcDbEntity
  8
0
370
    13
390
0
 62
     7
100
AcDbLine
 10
610.277649
 20
114.982498
 30
0.0
 11
610.277649
 21
139.982498
 31
0.0
210
0.0
220
0.0
230
1.0
  0
LINE
  5
1B5
100
AcDbEntity
  8
0
370
    13
390
0
 62
     7
100
AcDbLine
 10
547.433411
 20
108.958626
 30
0.0
 11
541.433411
 21
108.958626
 31
0.0
210
0.0
220
0.0
230
1.0
  0
LINE
  5
1B6
100
AcDbEntity
  8
0
370
    13
390
0
 62
     7
100
AcDbLine
 10
547.433411
 20
105.958626
 30
0.0
 11
547.433411
 21
108.958626
 31
0.0
210
0.0
220
0.0
230
1.0
  0
LINE
  5
1B7
100
AcDbEntity
  8
0
370
    13
390
0
 62
     7
100
AcDbLine
 10
547.433411
 20
105.958626
 30
0.0
 11
557.433411
 21
105.958626
 31
0.0
210
0.0
220
0.0
230
1.0
  0
LINE
  5
1B8
100
AcDbEntity
  8
0
370
    13
390
0
 62
     7
100
AcDbLine
 10
557.433411
 20
105.958626
 30
0.0
 11
557.433411
 21
108.958626
 31
0.0
210
0.0
220
0.0
230
1.0
  0
LINE
  5
1B9
100
AcDbEntity
  8
0
370
    13
390
0
 62
     7
100
AcDbLine
 10
557.433411
 20
108.958626
 30
0.0
 11
562.433411
 21
108.958626
 31
0.0
210
0.0
220
0.0
230
1.0
  0
POLYLINE
  5
1BA
100
AcDbEntity
  8
0
370
    13
390
0
 62
     7
100
AcDb2dPolyline
 66
     1
 10
0.0
 20
0.0
 30
0.0
 71
    23
  0
VERTEX
  5
1BB
100
AcDbEntity
  8
0
370
     0
390
0
100
AcDbVertex
100
AcDb2dVertex
 10
549.185303
 20
177.038391
 30
0.0
  0
VERTEX
  5
1BC
100
AcDbEntity
  8
0
370
     0
390
0
100
AcDbVertex
100
AcDb2dVertex
 10
550.596802
 20
173.269012
 30
0.0
  0
VERTEX
  5
1BD
100
AcDbEntity
  8
0
370
     0
390
0
100
AcDbVertex
100
AcDb2dVertex
 10
551.272827
 20
171.37854
 30
0.0
  0
VERTEX
  5
1BE
100
AcDbEntity
  8
0
370
     0
390
0
100
AcDbVertex
100
AcDb2dVertex
 10
551.929016
 20
169.484222
 30
0.0
  0
VERTEX
  5
1BF
100
AcDbEntity
  8
0
370
     0
390
0
100
AcDbVertex
100
AcDb2dVertex
 10
552.565369
 20
167.586029
 30
0.0
  0
VERTEX
  5
1C0
100
AcDbEntity
  8
0
370
     0
390
0
100
AcDbVertex
100
AcDb2dVertex
 10
553.181885
 20
165.68399
 30
0.0
  0
VERTEX
  5
1C1
100
AcDbEntity
  8
0
370
     0
390
0
100
AcDbVertex
100
AcDb2dVertex
 10
553.778564
 20
163.778091
 30
0.0
  0
VERTEX
  5
1C2
100
AcDbEntity
  8
0
370
     0
390
0
100
AcDbVertex
100
AcDb2dVertex
 10
554.355408
 20
161.868332
 30
0.0
  0
VERTEX
  5
1C3
100
AcDbEntity
  8
0
370
     0
390
0
100
AcDbVertex
100
AcDb2dVertex
 10
555.272766
 20
158.676834
 30
0.0
  0
VERTEX
  5
1C4
100
AcDbEntity
  8
0
370
     0
390
0
100
AcDbVertex
100
AcDb2dVertex
 10
556.135071
 20
155.474609
 30
0.0
  0
VERTEX
  5
1C5
100
AcDbEntity
  8
0
370
     0
390
0
100
AcDbVertex
100
AcDb2dVertex
 10
556.942261
 20
152.261688
 30
0.0
  0
VERTEX
  5
1C6
100
AcDbEntity
  8
0
370
     0
390
0
100
AcDbVertex
100
AcDb2dVertex
 10
557.694397
 20
149.038055
 30
0.0
  0
VERTEX
  5
1C7
100
AcDbEntity
  8
0
370
     0
390
0
100
AcDbVertex
100
AcDb2dVertex
 10
558.391479
 20
145.803696
 30
0.0
  0
VERTEX
  5
1C8
100
AcDbEntity
  8
0
370
     0
390
0
100
AcDbVertex
100
AcDb2dVertex
 10
559.033386
 20
142.558624
 30
0.0
  0
VERTEX
  5
1C9
100
AcDbEntity
  8
0
370
     0
390
0
100
AcDbVertex
100
AcDb2dVertex
 10
559.692322
 20
138.879974
 30
0.0
  0
VERTEX
  5
1CA
100
AcDbEntity
  8
0
370
     0
390
0
100
AcDbVertex
100
AcDb2dVertex
 10
560.281006
 20
135.187653
 30
0.0
  0
VERTEX
  5
1CB
100
AcDbEntity
  8
0
370
     0
390
0
100
AcDbVertex
100
AcDb2dVertex
 10
560.799316
 20
131.481674
 30
0.0
  0
VERTEX
  5
1CC
100
AcDbEntity
  8
0
370
     0
390
0
100
AcDbVertex
100
AcDb2dVertex
 10
561.247437
 20
127.762009
 30
0.0
  0
VERTEX
  5
1CD
100
AcDbEntity
  8
0
370
     0
390
0
100
AcDbVertex
100
AcDb2dVertex
 10
561.625183
 20
124.028679
 30
0.0
  0
VERTEX
  5
1CE
100
AcDbEntity
  8
0
370
     0
390
0
100
AcDbVertex
100
AcDb2dVertex
 10
561.932678
 20
120.28167
 30
0.0
  0
VERTEX
  5
1CF
100
AcDbEntity
  8
0
370
     0
390
0
100
AcDbVertex
100
AcDb2dVertex
 10
562.169861
 20
116.520996
 30
0.0
  0
VERTEX
  5
1D0
100
AcDbEntity
  8
0
370
     0
390
0
100
AcDbVertex
100
AcDb2dVertex
 10
562.336792
 20
112.746643
 30
0.0
  0
VERTEX
  5
1D1
100
AcDbEntity
  8
0
370
     0
390
0
100
AcDbVertex
100
AcDb2dVertex
 10
562.433411
 20
108.958626
 30
0.0
  0
SEQEND
  5
1D2
100
AcDbEntity
  8
0
370
     0
390
0
  0
ARC
  5
1D3
100
AcDbEntity
  8
0
370
    35
390
0
 62
     7
100
AcDbCircle
 10
546.386353
 20
175.958618
 30
0.0
 40
3.0
210
0.0
220
0.0
230
1.0
100
AcDbArc
 50
21.095413
 51
90.000003
  0
LINE
  5
1D4
100
AcDbEntity
  8
0
370
    13
390
0
 62
     7
100
AcDbLine
 10
544.433411
 20
178.958618
 30
0.0
 11
546.386353
 21
178.958618
 31
0.0
210
0.0
220
0.0
230
1.0
  0
ARC
  5
1D5
100
AcDbEntity
  8
0
370
    35
390
0
 62
     7
100
AcDbCircle
 10
544.433411
 20
175.958618
 30
0.0
 40
3.0
210
0.0
220
0.0
230
1.0
100
AcDbArc
 50
90.000003
 51
180.000005
  0
LINE
  5
1D6
100
AcDbEntity
  8
0
370
    13
390
0
 62
     7
100
AcDbLine
 10
541.433411
 20
171.958618
 30
0.0
 11
541.433411
 21
175.958618
 31
0.0
210
0.0
220
0.0
230
1.0
  0
LINE
  5
1D7
100
AcDbEntity
  8
0
370
    13
390
0
 62
     7
100
AcDbLine
 10
541.433411
 20
171.958618
 30
0.0
 11
545.933411
 21
171.958618
 31
0.0
210
0.0
220
0.0
230
1.0
  0
LINE
  5
1D8
100
AcDbEntity
  8
0
370
    13
390
0
 62
     7
100
AcDbLine
 10
545.933411
 20
171.958618
 30
0.0
 11
545.933411
 21
168.958618
 31
0.0
210
0.0
220
0.0
230
1.0
  0
LINE
  5
1D9
100
AcDbEntity
  8
0
370
    13
390
0
 62
     7
100
AcDbLine
 10
545.933411
 20
168.958618
 30
0.0
 11
541.433411
 21
168.958618
 31
0.0
210
0.0
220
0.0
230
1.0
  0
LINE
  5
1DA
100
AcDbEntity
  8
0
370
    13
390
0
 62
     7
100
AcDbLine
 10
541.433411
 20
136.958618
 30
0.0
 11
541.433411
 21
168.958618
 31
0.0
210
0.0
220
0.0
230
1.0
  0
LINE
  5
1DB
100
AcDbEntity
  8
0
370
    13
390
0
 62
     7
100
AcDbLine
 10
550.933411
 20
136.958618
 30
0.0
 11
541.433411
 21
136.958618
 31
0.0
210
0.0
220
0.0
230
1.0
  0
LINE
  5
1DC
100
AcDbEntity
  8
0
370
    13
390
0
 62
     7
100
AcDbLine
 10
550.933411
 20
133.958618
 30
0.0
 11
550.933411
 21
136.958618
 31
0.0
210
0.0
220
0.0
230
1.0
  0
LINE
  5
1DD
100
AcDbEntity
  8
0
370
    13
390
0
 62
     7
100
AcDbLine
 10
541.433411
 20
133.958618
 30
0.0
 11
550.933411
 21
133.958618
 31
0.0
210
0.0
220
0.0
230
1.0
  0
LINE
  5
1DE
100
AcDbEntity
  8
0
370
    13
390
0
 62
     7
100
AcDbLine
 10
541.433411
 20
108.958626
 30
0.0
 11
541.433411
 21
133.958618
 31
0.0
210
0.0
220
0.0
230
1.0
  0
LINE
  5
1DF
100
AcDbEntity
  8
0
370
    13
390
0
 62
     7
100
AcDbLine
 10
572.267212
 20
71.35257
 30
0.0
 11
562.267212
 21
71.35257
 31
0.0
210
0.0
220
0.0
230
1.0
  0
LINE
  5
1E0
100
AcDbEntity
  8
0
370
    13
390
0
 62
     7
100
AcDbLine
 10
562.267212
 20
81.35257
 30
0.0
 11
572.267212
 21
71.35257
 31
0.0
210
0.0
220
0.0
230
1.0
  0
LINE
  5
1E1
100
AcDbEntity
  8
0
370
    13
390
0
 62
     7
100
AcDbLine
 10
562.267212
 20
71.35257
 30
0.0
 11
562.267212
 21
81.35257
 31
0.0
210
0.0
220
0.0
230
1.0
  0
CIRCLE
  5
1E2
100
AcDbEntity
  8
0
370
    13
390
0
 62
     7
100
AcDbCircle
 10
559.084656
 20
51.706463
 30
0.0
 40
3.0
210
0.0
220
0.0
230
1.0
  0
CIRCLE
  5
1E3
100
AcDbEntity
  8
0
370
    13
390
0
 62
     7
100
AcDbCircle
 10
559.084656
 20
51.706463
 30
0.0
 40
1.0
210
0.0
220
0.0
230
1.0
  0
ENDSEC
  0
SECTION
  2
OBJECTS
  0
DICTIONARY
  5
19
100
AcDbDictionary
280
     0
281
     1
  3
ACAD_GROUP
350
1A
  3
ACAD_MLINESTYLE
350
1B
  3
ACAD_LAYOUT
350
1E
  3
ACAD_PLOTSETTINGS
350
22
  3
ACAD_PLOTSTYLENAME
350
1F
  3
ACAD_WIPEOUT_VARS
350
23
  0
DICTIONARY
  5
1A
102
{ACAD_REACTORS
330
19
102
}
100
AcDbDictionary
280
     0
281
     1
  0
DICTIONARY
  5
1B
102
{ACAD_REACTORS
330
19
102
}
100
AcDbDictionary
280
     0
281
     1
  3
Standard
350
1C
  0
MLINESTYLE
  5
1C
102
{ACAD_REACTORS
330
1B
102
}
100
AcDbMlineStyle
  2
Standard
 70
     0
  3

 62
     0
 51
90.0
 52
90.0
 71
     2
 49
0.5
 62
   256
  6
ByLayer
 49
-0.5
 62
   256
  6
ByLayer
  0
ACDBDICTIONARYWDFLT
  5
1F
102
{ACAD_REACTORS
330
19
102
}
100
AcDbDictionary
281
     1
  3
Normal
350
1D
100
AcDbDictionaryWithDefault
340
1D
  0
ACDBPLACEHOLDER
  5
1D
102
{ACAD_REACTORS
330
1F
102
}
  0
LAYOUT
  5
20
102
{ACAD_REACTORS
330
1E
102
}
100
AcDbPlotSettings
  1

  2

  4

  6

 40
0.0
 41
0.0
 42
0.0
 43
0.0
 44
0.0
 45
0.0
 46
0.0
 47
0.0
 48
0.0
 49
0.0
140
0.0
141
0.0
142
1.0
143
1.0
 70
  1024
 72
     0
 73
     0
 74
     0
  7

 75
     0
147
1.0
148
0.0
149
0.0
100
AcDbLayout
  1
Model
 70
     0
 71
     0
 10
0.0
 20
0.0
 11
0.0
 21
0.0
 12
0.0
 22
0.0
 32
0.0
 14
0.0
 24
0.0
 34
0.0
 15
0.0
 25
0.0
 35
0.0
146
0.0
 13
0.0
 23
0.0
 33
0.0
 16
0.0
 26
0.0
 36
0.0
 17
0.0
 27
0.0
 37
0.0
 76
     0
330
A
331
0
345
0
346
0
  0
LAYOUT
  5
21
102
{ACAD_REACTORS
330
1E
102
}
100
AcDbPlotSettings
  1

  2

  4

  6

 40
0.0
 41
0.0
 42
0.0
 43
0.0
 44
0.0
 45
0.0
 46
0.0
 47
0.0
 48
0.0
 49
0.0
140
0.0
141
0.0
142
1.0
143
1.0
 70
     0
 72
     0
 73
     0
 74
     0
  7

 75
     0
147
1.0
148
0.0
149
0.0
100
AcDbLayout
  1
Layout1
 70
     0
 71
     0
 10
0.0
 20
0.0
 11
0.0
 21
0.0
 12
0.0
 22
0.0
 32
0.0
 14
0.0
 24
0.0
 34
0.0
 15
0.0
 25
0.0
 35
0.0
146
0.0
 13
0.0
 23
0.0
 33
0.0
 16
0.0
 26
0.0
 36
0.0
 17
0.0
 27
0.0
 37
0.0
 76
     0
330
B
331
0
345
0
346
0
  0
DICTIONARY
  5
1E
102
{ACAD_REACTORS
330
19
102
}
100
AcDbDictionary
280
     0
281
     1
  3
Layout1
350
21
  3
Model
350
20
  0
DICTIONARY
  5
22
102
{ACAD_REACTORS
330
19
102
}
100
AcDbDictionary
280
     0
281
     1
  0
WIPEOUTVARIABLES
  5
23
100
AcDbWipeoutVariables
 70
     1
  0
ENDSEC
  0
EOF
